Home » H » Hikaru Utada »

Hikaru Utada - Passion Bass

Artists:  A B C D E F G H I J K L M N O P Q R S T U V W X Y Z # 

Passion Bass

(ver. 1) Click to play this song!
Hikaru Utada
 Rating:
4/5 (5 votes)
                Intro (start right from the beginning of the song)
G|----------|----------------|
D|----------|----------------|
A|-0~--4~---|----4--4-4-7----|
E|----------|----------------|


Chorus (Follow the drums to get the beat -listen carefully-)
G|-----------------------------------------|
D|-----------------------------------------|
A|-0-00-00-0-00-00-----7-7------7-7--------|
E|-----------------9-9--9-9-9-9--9-9-------|

Verses (Follow the guitar)
G|------------------|
D|------------------|
A|----77777---99999-|
E|-444-----777------|

Bridge (when it starts "noitome eurt deen I"/"Hitoshirezu" [English and Japanese 
version respectively])
G|---------------------------------|
D|---------------------------------|
A|-------11h12-11h12-----------9~--|
E|-9-9-9-----------------9-9-9---9-|

Chorus (almost 'till the end of the song)
G|-----------------------------------------|
D|-----------------------------------------|
A|-0-00-00-0-00-00-----7-7------7-7--------|
E|-----------------9-9--9-9-9-9--9-9-------|

Outro:
G|--------------|
D|--------------|
A|--4--4-4-7----|
E|--------------|

Using Passion/Sanctuary ~After the battle~ helps to give you an idea
            
Submit corrections

↑ Back to top | Tablatures and chords for acoustic guitar and electric guitar, ukulele, drums are parodies/interpretations of the original songs. You may use it for private study, scholarship, research or language learning purposes only