» » »

Hey Rosetta - Welcome Tabs

Artists:  A B C D E F G H I J K L M N O P Q R S T U V W X Y Z # 

Welcome Tabs

(ver. 1) Click to play this song!
Hey Rosetta
 Rating:
4/5 (6 votes)

 Welcome lessons Tabs too difficult? Try these video lessons and learn fast
 
                Made a few corrections, pretty sure it's 100% now!

Tuning: Standard (Capo 5th fret)

Verse 1

e |--0---10---9---9---10---|
B |--6---10--10---9---10---|
G |--7---11--11---10--11---|
D |--7---12--11---11--12---|
A |--0---12---9---11--12---|    
E |--x---10---x---9---10---|

You'll be a bright light coming out of the dark
All the doctors blinking hard
You'll be lightning coming out of the storm
It's a message, it's a miracle


Pre-chorus

e |---7---9----10-----|
B |---7---9----10-----|
G |---7---9----11-----|
D |---9---11---12-----|
A |---9---11---12-----|         
E |---7---9----10-----|

You'll do all right
You've got your mother's eyes
You've got your daddy's head
Everything you need

Chorus

e |--0---10---9---9---10---|
B |--6---10--10---9---10---|
G |--7---11--11---10--11---|
D |--7---12--11---11--12---|
A |--0---12---9---11--12---|    
E |--x---10---x---9---10---|

I can feel you and what you're gonna be
You'll be stronger, you'll be smarter than me
Oh baby, I'll say it again
You're the most incredible thing



Verse 2

e |--0---10---9---9---10---|
B |--6---10--10---9---10---|
G |--7---11--11---10--11---|
D |--7---12--11---11--12---|
A |--0---12---9---11--12---|    
E |--x---10---x---9---10---|

For this hard ride
They'll be strapping you on
All the ups and downs and you can't get off
Yes, trouble we're handing off
And you've got to do better than us

Pre-chorus

e |---7---9----10-----|
B |---7---9----10-----|
G |---7---9----11-----|
D |---9---11---12-----|
A |---9---11---12-----|         
E |---7---9----10-----|

It'll be all right
You've got lots of time
Got your daddy's love
Everything you want

Chorus

Bridge

e |--0---x---7--0----|
B |--6---9---7--7----|
G |--7---9---7--7----|
D |--7---9---9--7----|
A |--0---7---9--0----|  
E |--x---7---7--x----|


Sorry, this is it
It's cold and hard and badly lit
And there's no backing out of it
So forget where you've been
It'll never be that good again
And we must only look ahead
Soon you're 33
And everything you tried to be
Is pulled apart by fear and greed

Let young hands build you up
And carve your face in honest rock
With sunlight on your noble jaw
May young hands build you up
I'm happy that you've come along
I'm happy that you've come, I'm happy that you've come

Bridge Interlude 

e |--0---10---9---9---10---|
B |--6---10--10---9---10---|
G |--7---11--11---10--11---|
D |--7---12--11---11--12---|
A |--0---12---9---11--12---|    
E |--x---10---x---9---10---|

Chorus

End on

e |--10--------|
B |--10--------|
G |--11--------|
D |--12--------|
A |--12--------|        
E |--10--------|
            
Submit corrections


        Welcome lessons Hard to play? Try these video lessons and learn fast Welcome lessons
        
↑ Back to top | Tablatures and chords for acoustic guitar and electric guitar, ukulele, drums are parodies/interpretations of the original songs. You may use it for private study, scholarship, research or language learning purposes only