» » »

Hey Rosetta - Seventeen Tabs

Artists:  A B C D E F G H I J K L M N O P Q R S T U V W X Y Z # 

Seventeen Tabs

(ver. 1) Click to play this song!
Hey Rosetta
 Rating:
4/5 (4 votes)

 Seventeen lessons Tabs too difficult? Try these video lessons and learn fast
 
                Hey Rosetta! - Seventeen

Tuning: EADAAe
x = Palm mute
Note: Palm muting the B string (tuned to A) is optional

Intro:                                                  We watch the land....
e|-0-----0----0-----0----0----0---0-----0---0----0---0--0--0----0---0-------|
A|-0-----0----0-----0----0----0---0-----0---0----0---0--0--0----0---0-------|
A|-x-----x----x-----x----x----x---x-----x---x----x---x--x--x----x---x-------|
D|-14---16---11----14----16--11---14----9---12---9---4--7--16---11--14------|
A|-x-----x----x----x-----x----x---x-----x---x----x---x--x--x----x---x-------|
E|-12---14----9----12----14---9---12----7---10---7---2--5--14---9---12------|

Said: I aint married yet, not some marionette......(change strumming) 
e|--0---0------|
A|--0---0------|
A|--x---x------|
D|--4---7------|
A|--x---x------|
E|--2---5------|

I cut my strings, and I went wandering......
e|-0----0---0------|
A|-0----0---0------|
A|-x----x---x------|
D|-11---9---7------|
A|-x----x---x------|
E|-9----7---5------|

Between two poles......
e|--0--0----0-----0----0-----0---0---0----0---0--0----------|
A|--0--0----0-----0----0-----0---0---0----0---0--0----------|
A|--x--x----x-----x----x-----x---x---x----x---x--x----------|
D|-16--11---14---16---11----14---9---12---9---4--7----------|
A|--x--x----x-----x----x-----x---x---x----x---x--x----------|
E|-14--9----12---14----9----12---7---10---7---2--5----------|

Im losing you, I can see it
e|-0---0---0----------------|
A|-0---0---0----------------|
A|-x---x---x----------------|
D|-5---4---9----------------|
A|-x---x---x----------------|
E|-3---2---7----------------|

Tim does some hammer ons during the 'Im losing you' portion after the
(2,x,4,x,0,0) part. (7,x,9,x,0,0) works fine.


Vid Here:
            
Submit corrections


        Seventeen lessons Hard to play? Try these video lessons and learn fast Seventeen lessons
        
↑ Back to top | Tablatures and chords for acoustic guitar and electric guitar, ukulele, drums are parodies/interpretations of the original songs. You may use it for private study, scholarship, research or language learning purposes only