» » »

Hey Rosetta - Psalm Tabs

Artists:  A B C D E F G H I J K L M N O P Q R S T U V W X Y Z # 

Psalm Tabs

(ver. 1) Click to play this song!
Hey Rosetta
 Rating:
4/5 (4 votes)

 Psalm lessons Tabs too difficult? Try these video lessons and learn fast
 
                Hey Rosetta! - Psalm

Here are some nicer and more accurate sounding versions of the chords. Play
with capo on 5th fret, use thumb for bass notes on E string, strum softly or
pluck the strings with all fingers (to simulate the sound of the piano) and
listen closely to the song to get the timing (generally alternates two beats
then three beats between chord progressions). Have fun!

Capo 5

 But often it happens you know...
e|---------------|
B|--2---0---2----|
G|--2---1---2----|
D|--4---2---2----|
A|--4---2---0--0-|
E|--2---0--------|

 That the things you don't trust are the ones you need most
|--------------------------------|
|--2---0---2---2---0-------------|
|--2---1---3---2---1-------------|
|--4---2---2---2---2-------------|
|--4---2-------0---2---2---2---2-|
|--2---0---2-------0-------------|

 So it's cautiously into the dark
|------------------------|
|--2---0---2-------------|
|--2---1---2-------------|
|--4---2---2-------------|
|--4---2---0---0---0---0-|
|--2---0-----------------|

 But you'll see before long that your eyes will adjust
|--------------------------------|
|--2---0---2---2---0-------------|
|--2---1---3---2---1-------------|
|--4---2---2---2---2-------------|
|--4---2-------0---2---2---2---2-|
|--2---0---2-------0-------------|

 And under the night you can hear
|--------------------|
|--2---0---2---------|
|--2---1---2---------|
|--4---2---2---------|
|--4---2---0---0---0-|
|--2---0-------------|

 The full moon rise like a psalm in the air
|----------2---5---4--------|
|--2---0---3---2---0--------|
|--2---1---2---2---1--------|
|--4---2-----------2--------|
|--4---2-------0------------|
|--2---0---2----------0---0-|

 And the air... goes...
|--2------|
|--3---3--|
|--2---2--|
|--0---0--|
|---------|
|---------|

Into your lungs...
|------------------|
|--2---0---2-------|
|--2---1---2-------|
|--4---2---2-------|
|--4---2---0--0--0-|
|--2---0-----------|

And around in your heart and on through your blood.
|-----------------------------|
|--2---0---2---2---0----------|
|--2---1---3---2---1----------|
|--4---2---2---2---2----------|
|--4---2---x---0---2---2---2--|
|--2---0---2-------0----------|

It goes cautiously into the dark
And you see before long that we all have a part
And under the skin you can feel
That the fear that you feel is what will set you free
Set you free...

(instrumental break)

And under the night you can hear
The full moon rise like a psalm in the air

------------------------------------------
This incredible and beautiful song never ceases to move, or amaze me.
Play and sing it like I've described here for someone and they will love you for it.
            
Submit corrections


        Psalm lessons Hard to play? Try these video lessons and learn fast Psalm lessons
        
↑ Back to top | Tablatures and chords for acoustic guitar and electric guitar, ukulele, drums are parodies/interpretations of the original songs. You may use it for private study, scholarship, research or language learning purposes only