» » »

Hey Rosetta - Plug Your Ears Tabs

Artists:  A B C D E F G H I J K L M N O P Q R S T U V W X Y Z # 

Plug Your Ears Tabs

(ver. 1) Click to play this song!
Hey Rosetta
 Rating:
4/5 (4 votes)

 Plug Your Ears lessons Tabs too difficult? Try these video lessons and learn fast
 
                ----------------------------------------------------------------------------
----------------------------------------------------------------------------

Tuning: Standard  

(Capo on 2nd fret - all the chords are relative to the capo)


  Listen to the song for rhythm and structure.


Intro

e|-4-4-----4-4-----4-4-----4-4-------|
B|-5-5-5-5-5-5-5-5-5-5-5-5-5-5-5-5---|
G|-6-6-6-6-6-6-6-6-6-6-6-6-6-6-6-6---|
D|-6-6-6-6-6-6-6-6-6-6-6-6-6-6-6-6---|
A|-4-4-X-X-4-4-X-X-4-4-X-X-4-4-X-X---|
E|-----5-4-----5-4-----5-4-----5-4---|  

  Enter drums and strings

Verse 1

  "moons aligned as you were conceived..."

e|-4-4-----4-4-----4-4-----4-4-------|
B|-5-5-5-5-5-5-5-5-5-5-5-5-5-5-5-5---|
G|-6-6-6-6-6-6-6-6-6-6-6-6-6-6-6-6---|
D|-6-6-6-6-6-6-6-6-6-6-6-6-6-6-6-6---|
A|-4-4-X-X-4-4-X-X-4-4-X-X-4-4-X-X---|
E|-----5-4-----5-4-----5-4-----5-4---|
 

  "you're dancing on your cord cuffs..."  

e|-4-4-----4-4-----4-4-----4-4-------|
B|-5-5-5-5-5-5-5-5-5-5-5-5-5-5-5-5---|
G|-6-6-6-6-6-6-6-6-6-6-6-6-6-6-6-6---|
D|-6-6-6-6-6-6-6-6-6-6-6-6-6-6-6-6---|
A|-4-4-X-X-4-4-X-X-4-4-X-X-4-4-X-X---|
E|-----5-4-----5-4-----5-4-----5-4---|


Chorus 1

  "move left, move right but don't listen, don't listen..."


e|-0-0---------4---4-5-5---|
B|-0-0-4-4-4-4-4h5-5-5-5---|
G|-1-1-4-4-4-4-4h6-6-6-6---|
D|-2-2-4-4-4-4-4h6-6-7-7---|
A|-2-2-2-2-3-3-4---4-7-7---|
E|-0-0---------------5-5---|

Interlude 

e|-0-0-0-0-------------|
B|-0-0-0-0-------------|
G|-1-1-0-0---4-4-2-2---|
D|-2-2-2-2---4-4-2-2---|
A|-2-2-X-X-2-2-2-X-X---|
E|-0-0-2-2-3-3-3-2-2---|

Verse 2

  "bridges fell in sweet release..."

e|-4-4-----4-4-----4-4-----4-4-------|
B|-5-5-5-5-5-5-5-5-5-5-5-5-5-5-5-5---|
G|-6-6-6-6-6-6-6-6-6-6-6-6-6-6-6-6---|
D|-6-6-6-6-6-6-6-6-6-6-6-6-6-6-6-6---|
A|-4-4-X-X-4-4-X-X-4-4-X-X-4-4-X-X---|
E|-----5-4-----5-4-----5-4-----5-4---|

  "you're laughing in their handcuffs..."

e|-4-4-----4-4-----4-4-----4-4-------|
B|-5-5-5-5-5-5-5-5-5-5-5-5-5-5-5-5---|
G|-6-6-6-6-6-6-6-6-6-6-6-6-6-6-6-6---|
D|-6-6-6-6-6-6-6-6-6-6-6-6-6-6-6-6---|
A|-4-4-X-X-4-4-X-X-4-4-X-X-4-4-X-X---|
E|-----5-4-----5-4-----5-4-----5-4---|

Chorus 2

  "move left, move right but don't listen, don't listen..."

e|-0-0---------4---4-5-5---|
B|-0-0-4-4-4-4-4h5-5-5-5---|
G|-1-1-4-4-4-4-4h6-6-6-6---|
D|-2-2-4-4-4-4-4h6-6-7-7---|
A|-2-2-2-2-3-3-4---4-7-7---|
E|-0-0---------------5-5---|


Interlude

e|-0-0-0-0-------------|
B|-0-0-0-0-------------|
G|-1-1-0-0---4-4-2-2---|
D|-2-2-2-2---4-4-2-2---|
A|-2-2-X-X-2-2-2-X-X---|
E|-0-0-2-2-3-3-3-2-2---|


Outro

e|-4-4-4-4-4-4-4-4-4-4-4-4--4-4----|
B|-5-5-5-5-5-5-5-5-5-5-5-5--5-5----|
G|-6-6-6-6-6-6-6-6-6-6-6-6--6-6----|
D|-6-6-6-6-6-6-6-6-6-6-6-6--6-6----|
A|-4-4-X-X-4-4-X-X-4-4-X-X--4-4----|
E|-----5-4-----5-4-----5-4---------|




 

============================================================================
            
Submit corrections


        Plug Your Ears lessons Hard to play? Try these video lessons and learn fast Plug Your Ears lessons
        
↑ Back to top | Tablatures and chords for acoustic guitar and electric guitar, ukulele, drums are parodies/interpretations of the original songs. You may use it for private study, scholarship, research or language learning purposes only