» » »

Hey Rosetta - Another Pilot Tabs

Artists:  A B C D E F G H I J K L M N O P Q R S T U V W X Y Z # 

Another Pilot Tabs

(ver. 1) Click to play this song!
Hey Rosetta
 Rating:
4/5 (4 votes)

 Another Pilot lessons Tabs too difficult? Try these video lessons and learn fast
 
                ----------------------------------------------------------------------------
----------------------------------------------------------------------------

Tuning: Standard

Verse 1

The song starts out with guitar, drums, and vocals. While the guitar is
more than just simple strumming these are basically the chords that are
played.

  am                  C      F               C      G      F
  crows pitch on the lawn screeching a song
  am                  C           F                C   G   F (etc...)
  the inmates wake up and they're pulled to the bars...

Interlude 1 (no guitar)

  just another angel through the clouds and into the ground...

Verse 2

The guitar does a different riff here while the bass and piano seem to do
the same thing as in the first verse. I know this probably isn't exactly
right but it's close as far as I hear.

e|----------------------------------------------------|
B|--5--5--5--5--5--5--6--6--8--8--8--8--8--8--6--6----|
G|--5--5--5--5--5--5--5--5--9--9--9--9--7--7--5--5---*|
D|---------------------------------------------------*|
A|----------------------------------------------------|
E|----------------------------------------------------|

Interlude 2

  em                       am
  ...and run away from it all (repeat 3x)
  em
  and run away from it all...

Here's where it gets tricky. These are the chords that I deciphered from the mess of 
but I'm sure it's not all right.

  C  dm  G  C  dm  em  F  G  am  B5 (build-up on B5)

Then all of a sudden it's quiet and all that's left is bass.

  G|----------------|
  D|---------------*|   "You plan your escape, at the end of the day..."
  A|--3------------*|
  E|------0---1-----|

The guitar comes in a few measures later playing the same chords (C, em, F)
along with the bass while more vocal tracks are added and eventually the
song ends! Finish on an F.

============================================================================
            
Submit corrections


        Another Pilot lessons Hard to play? Try these video lessons and learn fast Another Pilot lessons
        
↑ Back to top | Tablatures and chords for acoustic guitar and electric guitar, ukulele, drums are parodies/interpretations of the original songs. You may use it for private study, scholarship, research or language learning purposes only