Home » H » Herbie Hancock »

Herbie Hancock - Watermelon Man Tabs

Artists:  A B C D E F G H I J K L M N O P Q R S T U V W X Y Z # 

Watermelon Man Tabs

(Version #1)
Herbie Hancock
E -------------------------------|
B --4---------------1--3---------|
G ------------------1--3---------|
D -----------3-3------------3----|
A -------------------------------|
E -------------------------------|


E --1----------------------------|
B -----------------1--3----------|
G -----------------1--3----------|
D -----------3-3------------3----|
A -------------------------------|
E -------------------------------|


E ---------3---5----4-3-1----1---3|
B --1-1-------------------3-------|
G --------------------------------|
D --------------------------------|
A --------------------------------|
E --------------------------------|


E ---------3---5----4-3-1---------|
B --1-1-------------------3--1--3-|
G --------------------------------|
D --------------------------------|
A --------------------------------|
E --------------------------------|


E ---------3---4--1---------------|
B --1-1-------------------1-3-----|
G ------------------------1-3-----|
D -------------------3-3-------3--|
A --------------------------------|
E --------------------------------|

At the same time, the background:

E -------------------------|
B -------------------------|
G -----2-------------------| x4
D -----1----------1-3------|
A ----------3-3------------|
E -1-1---------------------|


E -------------------------|
B -------------------------|
G -----3----------1-3------| x2
D -----1-----3-3-----------|
A -1-1---------------------|
E -------------------------|


E -------------------------|
B -------------------------|
G -----2-------------------| x2
D -----1----------1-3------|
A ----------3-3------------|
E -1-1---------------------|

                                       
E -------------------------------------------|
B ------5-----------------------3------------|
G ------3---------3-5-----------1--------1-3-| x2        
D -----------5-5---------------------3-3-----|
A -3-3---------------------1-1---------------|
E -------------------------------------------|
                                  
                                       
E -------------------------------|
B ------5------------------------|
G ------3---------3-5------------|        
D -----------5-5-----------------|
A -3-3---------------------1-----|
E -------------------------------|


E -------------------------|
B -------------------------|
G -----2-------------------| x2
D -----1----------1-3------|
A ----------3-3------------|
E -1-1---------------------|
            
Submit corrections

↑ Back to top | Tablatures and chords for acoustic guitar and electric guitar, ukulele, drums are parodies/interpretations of the original songs. You may use it for private study, scholarship, research or language learning purposes only