» » »

Henry Mancini - Love Story Tabs

Artists:  A B C D E F G H I J K L M N O P Q R S T U V W X Y Z # 

Love Story Tabs

(ver. 1) Click to play this song!
Henry Mancini
 Rating:
4.2/5 (5 votes)
                (Theme)
-------------------------------------------------------------------------------
                             Love story theme – Henry Mancini
-------------------------------------------------------------------------------

Hey this tab is played two hands on the piano so normally it would take two guitars but 
tried to kinda combine as much of the second guitar as possible so one person can get a 
result. Enjoy!

e|-0~----------------0~---------------------------|
B|-1~---1-1p0h1------1~----1-1--------------------|
G|-2~----------------2~------------------4--------|
D|-2~2-2-------------2~-2-2---2-3-2--2------------|
A|-0~----------3-2-3-0~-------------5-4-5--5-3-2—-|
E|----------------------------------------------4-|

e|------------------------------------------------------------|
B|--------------------------1~--------------------------------|
G|----4-4----------------2-2-2---2-2---------------1-1-4p2h4--|
D|---------------------------------------------------2------3-|
A|-5-5---5-7-5-3—5p3/2-3------3-3---3-5-3-2-3-2-0-2-----------|
E|------------------------------------------------------------|

e|-0~----------------0~---------------------------|
B|-1~---1-1p0h1------1~----1-1--------------------|
G|-2~----------------2~------------------4--------|
D|-2~2-2-------------2~-2-2---2-3-2--2------------|
A|-0~----------3-2-3-0~-------------5-4-5--5-3-2—-|
E|----------------------------------------------4-|

e|-----------------------------------------------------------0~-|
B|--------------------------1~-------------------------------1~-|
G|----4-4----------------2-2-2---2-2---------------1-1-2-4~--2~-|
D|---------------------------------------------------2-4-6~--2~-|
A|-5-5---5-7-5-3—5p3/2-3------3-3---3-5-3-2-3-2-0-2----------0~-|
E|--------------------------------------------------------------|


| /  slide up
| \  slide down
| h  hammer-on
| p  pull-off
| ~  vibrato
| +  harmonic
| x  Mute note
===============================================================================
            
Submit corrections

↑ Back to top | Tablatures and chords for acoustic guitar and electric guitar, ukulele, drums are parodies/interpretations of the original songs. You may use it for private study, scholarship, research or language learning purposes only