» » »

Helmet - Ironhead Tabs

Artists:  A B C D E F G H I J K L M N O P Q R S T U V W X Y Z # 

Ironhead Tabs

(ver. 1) Click to play this song!
Helmet
 Rating:
4.1/5 (31 vote)

 Ironhead lessons Tabs too difficult? Try these video lessons and learn fast
 
                
[Intro]
     S S S E   S S S S E   S S S S S 
e |-----------------------------------|
B |-----------------------------------|
G |-----------------------------------|
D |--7-8-7-0---0-7-8-7-0---0-7-8-7-0--|
A |--7-8-7-0---0-7-8-7-0---0-7-8-7-0--|
D |--7-8-7-0---0-7-8-7-0---0-7-8-7-0--|
  [0:00]

                                      7x
     S S   S S S   S S S   S S S   S      S S   S S S     S S     S S 
e||-----------------------------------||---------------------------------|
B||o---------------------------------o||---------------------------------|
G||-----------------------------------||---------------------------------|
D||--3-0---x-3-5---x-2-3---x-2-3---x--||--3-0---x-3-5-----2-2-----2-2----|
A||o-3-0---x-3-5---x-2-3---x-2-3---x-o||--3-0---x-3-5-----2-2-----2-2----|
D||--3-0---x-3-5---x-2-3---x-2-3---x--||--3-0---x-3-5-----2-2-----2-2----|
  [0:03]                               

     S S     S S     S S     S S     S S     S S W 
e |-------------------------------------------------|
B |-------------------------------------------------|
G |-------------------------------------------------|
D |--2-2-----2-2-----2-2-----2-2-----2-2-----2-3-4--|
A |--2-2-----2-2-----2-2-----2-2-----2-2-----2-3-4--|
D |--2-2-----2-2-----2-2-----2-2-----2-2-----2-3-4--|
  [0:22]

[Verse 1]                             7x
     S S   S S S   S S S   S S S   S      S S   S S S   S S S   S S S E
e||-----------------------------------||---------------------------------|
B||o---------------------------------o||---------------------------------|
G||-----------------------------------||---------------------------------|
D||--3-0---x-3-5---x-2-3---x-2-3---x--||--3-0---x-3-5---x-2-3---x-2-3-3--|
A||o-3-0---x-3-5---x-2-3---x-2-3---x-o||--3-0---x-3-5---x-2-3---x-2-3-3--|
D||--3-0---x-3-5---x-2-3---x-2-3---x--||--3-0---x-3-5---x-2-3---x-2-3-3--|
  [0:29 "Safe to kill..."]

[Chorus]                                                      3x
     E   S S S S S S S S S S S S S S E   S S S S S S S S S S     S
e||-----------------------------------------------------------||---|
B||o---------------------------------------------------------o||---|
G||-----------------------------------------------------------||---|
D||--0---0-0-0-3-0-0-0-3-0-0-0-3-5-5-0---0-0-0-3-0-0-0-7-8-7--||-0-|
A||o-0---0-0-0-3-0-0-0-3-0-0-0-3-5-5-0---0-0-0-3-0-0-0-7-8-7-o||-0-|
D||--0---0-0-0-3-0-0-0-3-0-0-0-3-5-5-0---0-0-0-3-0-0-0-7-8-7--||-0-|
  [0:50]

 [Verse 2]                            7x
     S S   S S S   S S S   S S S   S      S S   S S S   S S S   S S S E
e||-----------------------------------||---------------------------------|
B||o---------------------------------o||---------------------------------|
G||-----------------------------------||---------------------------------|
D||--3-0---x-3-5---x-2-3---x-2-3---x--||--3-0---x-3-5---x-2-3---x-2-3-3--|
A||o-3-0---x-3-5---x-2-3---x-2-3---x-o||--3-0---x-3-5---x-2-3---x-2-3-3--|
D||--3-0---x-3-5---x-2-3---x-2-3---x--||--3-0---x-3-5---x-2-3---x-2-3-3--|
  [01:03 "Time to take..."]

[Chorus]                                                       4x
     E   S S S S S S S S S S S S S S   E    S S S S S S S S S S   
e||----------------------------------|---------------------------||
B||o---------------------------------|--------------------------o||
G||----------------------------------|---------------------------||
D||--0---0-0-0-3-0-0-0-3-0-0-0-3-5-5-|-0----0-0-0-3-0-0-0-7-8-7--||
A||o-0---0-0-0-3-0-0-0-3-0-0-0-3-5-5-|-0----0-0-0-3-0-0-0-7-8-7-o||
D||--0---0-0-0-3-0-0-0-3-0-0-0-3-5-5-|-0----0-0-0-3-0-0-0-7-8-7--||
  [01:23]

[Middle 8]
     E   S S S S E   S S S S E   S S S S S 
e |----------------------------------------|
B |----------------------------------------|
G |----------------------------------------|
D |--0---0-7-8-7-0---0-7-8-7-0---0-7-8-7-0-|
A |--0---0-7-8-7-0---0-7-8-7-0---0-7-8-7-0-|
D |--0---0-7-8-7-0---0-7-8-7-0---0-7-8-7-0-|
  [1:40]

                                                    3x              [1,3]                [2]
     E   E   E   E   E   E   E   E   E   E   E   E     E   S S S E   S    E   E   S S S S
e||-------------------------------------------------||------------------|------------------|
B||o-----------------------------------------------o||------------------|------------------|
G||-------------------------------------------------||------------------|------------------|
D||--7---7---7---7---7---7---7---7---7---7---7---7--||-7---7-8-7-0---0--|-7---7---7-8-7-0--|
A||o-7---7---7---7---7---7---7---7---7---7---7---7-o||-7---7-8-7-0---0--|-7---7---7-8-7-0--|
D||--7---7---7---7---7---7---7---7---7---7---7---7--||-7---7-8-7-0---0--|-7---7---7-8-7-0--|
  [1:43]

     E   E   E   E   E   E   E   E    E   E   E   E   E   E   E   E  
e |--------------------------------|---------------------------------|
B |--------------------------------|---------------------------------|
G |--------------------------------|---------------------------------|
D |--7---7---7---7---7---7---7---7-|-10--10--10--10--12--12--13--13--|
A |--7---7---7---7---7---7---7---7-|--7---7---7---7---0---0---0---0--|
D |--7---7---7---7---7---7---7---7-|--7---7---7---7------------------|
  [1:58]

[Chorus v2]                                           3x                [1]                [2]
     S S S S S S S S S S S S S S S S S S S S S S S S S   S S S S S S S S    E   S E   S S S 
e |---------------------------------------------------||------------------|------------------|
B |o-------------------------------------------------o||------------------|------------------|
G |--2-2-2-2-2-2-2-2-9-9-9-9-9-9-9-9-8-8-8-8-8-8-8-8--||-5-5-5-5-5-5-5-5--|------------------|
D |--0-0-0-0-0-0-0-0-7-7-7-7-7-7-7-7-6-6-6-6-6-6-6-6--||-3-3-3-3-3-3-3-3--|-3---0-3---0-3-5--|
A |o-0-0-0-0-0-0-0-0-7-7-7-7-7-7-7-7-6-6-6-6-6-6-6-6-o||-3-3-3-3-3-3-3-3--|-3---0-3---0-3-5--|
D |--0-0-0-0-0-0-0-0-7-7-7-7-7-7-7-7-6-6-6-6-6-6-6-6--||-3-3-3-3-3-3-3-3--|-3---0-3---0-3-5--|
  [2:03 "Aaaargh..."]


 [Solo]                                                             4x 
     S S   S S S   S S S   S S S   S S S   S S S   S S S   S S S E     E
e||-----------------------------------------------------------------||---|
B||o---------------------------------------------------------------o||---|
G||-----------------------------------------------------------------||---|
D||--3-0---x-3-5---x-3-0---x-3-5---x-3-0---x-3-5---x-3-0---x-3-5-6--||-0-|
A||o-3-0---x-3-5---x-3-0---x-3-5---x-3-0---x-3-5---x-3-0---x-3-5-6-o||-0-|
D||--3-0---x-3-5---x-3-0---x-3-5---x-3-0---x-3-5---x-3-0---x-3-5-6--||-0-|
 [2:16]                                                              [Additional beat at 2:37]

                                    4x [3]
     S S   S S S   S S S   S S S E     E
e||---------------------------------||---|
B||o-------------------------------o||---|
G||---------------------------------||---|
D||--2-3---x-2-3---x-2-3---x-2-3-4--||-0-|
A||o-2-3---x-2-3---x-2-3---x-2-3-4-o||-0-|
D||--2-3---x-2-3---x-2-3---x-2-3-4--||-0-|
  [2:37]                             [Additional beat at 2:45] 

                                      3x
     S S   S S S   S S S   S S S   S      S S   S S S   S S S   S S S E
e||-----------------------------------||---------------------------------|
B||o---------------------------------o||---------------------------------|
G||-----------------------------------||---------------------------------|
D||--3-0---x-3-5---x-2-3---x-2-3---x--||--3-0---x-3-5---x-2-3---x-2-3-3--|
A||o-3-0---x-3-5---x-2-3---x-2-3---x-o||--3-0---x-3-5---x-2-3---x-2-3-3--|
D||--3-0---x-3-5---x-2-3---x-2-3---x--||--3-0---x-3-5---x-2-3---x-2-3-3--|
 [2:48]

[Chorus]                                                         4x   
     E   S S S S S S S S S S S S S S   E    S S S S S S S S S S   
e||----------------------------------|---------------------------||
B||o---------------------------------|--------------------------o||
G||----------------------------------|---------------------------||
D||--0---0-0-0-3-0-0-0-3-0-0-0-3-5-5-|-0----0-0-0-3-0-0-0-7-8-7--||
A||o-0---0-0-0-3-0-0-0-3-0-0-0-3-5-5-|-0----0-0-0-3-0-0-0-7-8-7-o||
D||--0---0-0-0-3-0-0-0-3-0-0-0-3-5-5-|-0----0-0-0-3-0-0-0-7-8-7--||
  [2:58 "Ironhead..."]

[Outro]
    E   S S S S E   S S S S S S S S S   W          E
e |-----------------------------------|--------------|
B |-----------------------------------|--------------|
G |-----------------------------------|--------------|
D |-0---0-7-8-7-0---0-7-8-7-0-5-0-3-5-|-2---------2--|
A |-0---0-7-8-7-0---0-7-8-7-0-5-0-3-5-|-2---------2--|
D |-0---0-7-8-7-0---0-7-8-7-0-5-0-3-5-|-2---------2--|            
Submit corrections


        Ironhead lessons Hard to play? Try these video lessons and learn fast Ironhead lessons
        
↑ Back to top | Tablatures and chords for acoustic guitar and electric guitar, ukulele, drums are parodies/interpretations of the original songs. You may use it for private study, scholarship, research or language learning purposes only