Home » H » Hellyeah »

Hellyeah - Sangre Por Sangre Blood For Blood Tabs

Artists:  A B C D E F G H I J K L M N O P Q R S T U V W X Y Z # 

Sangre Por Sangre Blood For Blood Tabs

(ver. 1) Click to play this song!
Hellyeah
 Rating:
1.7/5 (30 votes)
                Drop C tuning (Drop D one step down)

0:00
D|--------------------------------|
A|--------------------------------|
F|--------------------------------|
C|3-5-6\--------------------------|x4
G|3-5-6\--------------------------|
C|3-5-6\--------------------------|

0:13
D|--------------------------------|
A|--------------------------------|
F|--------------------------------|
C|3-5-6-----3---6---9-----3---6---|x3
G|3-5-6-----3---6---9-----3---6---|
C|3-5-6-0-0-3-0-6-0-9-0-0-3-0-6-0-|
        * *   *   *   * *   *   *
0:23
D|--------------------------------|
A|--------------------------------|
F|--------------------------------|
C|3-5-6-----3---6---9-------------|
G|3-5-6-----3---6---9-------------|
C|3-5-6-0-0-3-0-6-0-9-000-000-000-|
        * *   *   *   *** *** ***

0:26
D|--------------------------------|
A|--------------------------------|
F|--------------------------------|
C|3-5-6-----3---6---9-----3---6---|x2
G|3-5-6-----3---6---9-----3---6---|
C|3-5-6-0-0-3-0-6-0-9-0-0-3-0-6-0-|
        * *   *   *   * *   *   *

0:33
D|-----------------------------------|
A|-----------------------------------|
F|-----------------------------------|
C|13-12-10-----3---6---9-----3---6---|
G|13-12-10-----3---6---9-----3---6---|
C|13-12-10-0-0-3-0-6-0-9-0-0-3-0-6-0-|
           * *   *   *   * *   *   *

0:36
D|--------------------------------|
A|--------------------------------|
F|--------------------------------|
C|3-5-6-----3---6---9-------------|
G|3-5-6-----3---6---9-------------|
C|3-5-6-0-0-3-0-6-0-9-000-000-000-|
        * *   *   *   *** *** ***

0:40
D|----------------------------------------------------------------|
A|----------------------------------------------------------------|
F|----------------------------------------------------------------|
C|3-5-6---------------------------------------------------3---6---|x2
G|3-5-6---------------------------------------------------3---6---|
C|3-5-6-0-0-0-000-0-0-0-0-0-0-000-0-0-0-0-0-0-000-0-0-0-0-3-0-6-0-|
        * * * *** * * * * * * *** * * * * * * *** * * * *   *   * 

0:53
D|-------------------------------------------------------------------|
A|-------------------------------------------------------------------|
F|-------------------------------------------------------------------|
C|13-12-10---------------------------------------------------3---6---|
G|13-12-10---------------------------------------------------3---6---|
C|13-12-10-0-0-0-000-0-0-0-0-0-0-000-0-0-0-0-0-0-000-0-0-0-0-3-0-6-0-|
           * * * *** * * * * * * *** * * * * * * *** * * * *   *   * 

1:01
D|--------------------------------------------------------------|
A|--------------------------------------------------------------|
F|--------------------------------------------------------------|
C|3-5-6---------------------------3-5-6-----3---6---3-0---------|
G|3-5-6---------------------------3-5-6-----3---6---3-0---------|
C|3-5-6-0-0-0-000-0-0-0-0-0-0-000-3-5-6-0-0-3-0-6-0-3-0---------|
        * * * *** * * * * * * ***       * *   *   *  

1:07
D|--------------------------------------------------------------------|
A|--------------------------------------------------------------------|
F|--------------------------------------------------------------------|
C|13-12-10-----0--------h1b-----------/-8-10-----3----------b--------/|
G|13-12-10-----0--------h1b-----------/-8-10-----3----------b--------/|x4
C|13-12-10-----0--------h1b-----------/-8-10-----3----------b--------/|

1:35
D|--------------------------------|
A|--------------------------------|
F|--------------------------------|
C|3-5-6-----3---6---9-----3---6---|x2
G|3-5-6-----3---6---9-----3---6---|
C|3-5-6-0-0-3-0-6-0-9-0-0-3-0-6-0-|
        * *   *   *   * *   *   *

1:42
D|-----------------------------------|
A|-----------------------------------|
F|-----------------------------------|
C|13-12-10-----3---6---9-----3---6---|
G|13-12-10-----3---6---9-----3---6---|
C|13-12-10-0-0-3-0-6-0-9-0-0-3-0-6-0-|
           * *   *   *   * *   *   *

1:45
D|--------------------------------|
A|--------------------------------|
F|--------------------------------|
C|3-5-6-----3---6---9-------------|
G|3-5-6-----3---6---9-------------|
C|3-5-6-0-0-3-0-6-0-9-000-000-000-|
        * *   *   *   *** *** ***

1:48
D|----------------------------------------------------------------|
A|----------------------------------------------------------------|
F|----------------------------------------------------------------|
C|3-5-6---------------------------------------------------3---6---|x2
G|3-5-6---------------------------------------------------3---6---|
C|3-5-6-0-0-0-000-0-0-0-0-0-0-000-0-0-0-0-0-0-000-0-0-0-0-3-0-6-0-|
        * * * *** * * * * * * *** * * * * * * *** * * * *   *   * 

2:02
D|-------------------------------------------------------------------|
A|-------------------------------------------------------------------|
F|-------------------------------------------------------------------|
C|13-12-10---------------------------------------------------3---6---|
G|13-12-10---------------------------------------------------3---6---|
C|13-12-10-0-0-0-000-0-0-0-0-0-0-000-0-0-0-0-0-0-000-0-0-0-0-3-0-6-0-|
           * * * *** * * * * * * *** * * * * * * *** * * * *   *   * 

2:09
D|--------------------------------------------------------------|
A|--------------------------------------------------------------|
F|--------------------------------------------------------------|
C|3-5-6---------------------------3-5-6-----3---6---3-0---------|
G|3-5-6---------------------------3-5-6-----3---6---3-0---------|
C|3-5-6-0-0-0-000-0-0-0-0-0-0-000-3-5-6-0-0-3-0-6-0-3-0---------|
        * * * *** * * * * * * ***       * *   *   *  

2:16
D|--------------------------------------------------------------------|
A|--------------------------------------------------------------------|
F|--------------------------------------------------------------------|
C|13-12-10-----0--------h1b-----------/-8-10-----3----------b--------/|
G|13-12-10-----0--------h1b-----------/-8-10-----3----------b--------/|x4
C|13-12-10-----0--------h1b-----------/-8-10-----3----------b--------/|

2:43
D|--------------------------------|
A|--------------------------------|
F|--------------------------------|
C|--------2-----------------------|x8
G|222-2-2-2-2-2-2-333-3-555-5-666-|
C|222-2-2-2-2-2-2-333-3-555-5-666-|
  *** * *   * * * *** * *** * ***

2:50 (lead guitar overlay with some effects)
D|--------------------------------|
A|--------------------------------|
F|--------------------------------|
C|2---------------1-----0---------|
G|----------------------------3---|
C|--------------------------------|

3:10
D|--------------------------------|
A|--------------------------------|
F|--------------------------------|
C|--------------------------------|x3
G|222-2-2-2-2-2-2-333-3-555-5-666-|
C|222-2-2-2-2-2-2-333-3-555-5-666-|

3:20
D|--------------------------------|
A|--------------------------------|
F|--------------------------------|
C|----------------3-3-3-5-5-5-6-6-|
G|222-2-2-2-2-2-2-3-3-3-5-5-5-6-6-|
C|222-2-2-2-2-2-2-3-3-3-5-5-5-6-6-|
                  * * * * * * * *

3:23
D|--------------------------------|
A|--------------------------------|
F|--------------------------------|
C|6-0-0-3-0-6-0-9-0-0-0-0-0-0-3-5-|x7
G|6-0-0-3-0-6-0-9-0-0-0-0-0-0-3-5-|
C|6-0-0-3-0-6-0-9-0-0-0-0-0-0-3-5-|
    * *   *   *   * * * * * * 

3:48
D|----------------------------|
A|----------------------------|
F|----------------------------|
C|6-0-0-3-0-6-0-9-0-0-0-0-0-0-|
G|6-0-0-3-0-6-0-9-0-0-0-0-0-0-|
C|6-0-0-3-0-6-0-9-0-0-0-0-0-0-|
    * *   *   *   * * * * * * 

3:51
D|--------------------------------------------------------------------|
A|--------------------------------------------------------------------|
F|--------------------------------------------------------------------|
C|13-12-10-----0--------h1b-----------/-8-10-----3----------b--------/|
G|13-12-10-----0--------h1b-----------/-8-10-----3----------b--------/|x4
C|13-12-10-----0--------h1b-----------/-8-10-----3----------b--------/|

4:18
D|--------------------------------|
A|--------------------------------|
F|--------------------------------|
C|3-5-6-----3---6---9-------------|
G|3-5-6-----3---6---9-0-0-0---0---|
C|3-5-6-0-0-3-0-6-0-9-0-0-0---0---|
        * *   *   *   * * *   *

4:21
D|--------------------------------|
A|--------------------------------|
F|--------------------------------|
C|3-5-6-----3---6---9-------------|
G|3-5-6-----3---6---9-------------|
C|3-5-6-0-0-3-0-6-0-9-000-000-000-|
        * *   *   *

4:25
D|--------------------------------|
A|--------------------------------|
F|--------------------------------|
C|3-5-6-----3---6---9-------------|
G|3-5-6-----3---6---9-0-0-0---0---|
C|3-5-6-0-0-3-0-6-0-9-0-0-0---0---|
        * *   *   *   * * *   *

4:28
D|--------------------------------|
A|--------------------------------|
F|--------------------------------|
C|3-5-6-----3---6---9-------------|
G|3-5-6-----3---6---9-------------|
C|3-5-6-0-0-3-0-6-0-9-000-000-000-|
        * *   *   *            
Submit corrections

↑ Back to top | Tablatures and chords for acoustic guitar and electric guitar, ukulele, drums are parodies/interpretations of the original songs. You may use it for private study, scholarship, research or language learning purposes only