Home » H » Hellyeah »

Hellyeah - Hush Tabs

Artists:  A B C D E F G H I J K L M N O P Q R S T U V W X Y Z # 

Hush Tabs

(ver. 1) Click to play this song!
Hellyeah
 Rating:
4.2/5 (30 votes)
                Tuning: Drop C (C,G,C,F,A,D)

Riff 1 (light distortion w/ delay) *capo on 12th fret*
D|--------------------------------------------------------------------|
A|------------------------------------12-----------------15-----------|
F|-----------------12-----------12-----------------12-----------------|
C|-----------12-----------14-------14--------16-------16--------16----|
G|-----16-------16-----------------------14-----14-----------12----17-|
C|-17-----17----------14-----14---------------------------------------|

Fill 1 (acoustic)
D|---------------------|
A|---------------------|
F|-----0-------------0-|
C|---2---2-------4-----|
G|---------------------|
C|-2-------2/4-4---4---|

Riff 2   "You pray for quiet, inside your head your screams won't silence..." (chords strummed lightly)
D|---------------0-0-0-0-0-0-0-0-0----------------------------------|
A|---------------0-0-0-0-0-0-0-0-0----------------------------------|
F|---------------0-0-0-0-0-0-0-0-0---------------------0------------|
C|---------------2-2-2-2-2-2-2-2-2-------------------2-----4---7----|
G|-4-4-4-4-4-4-4-4-4-4-4-4-4-4-4-4-4-4-4-4-4-4-4-4-0-----0---0---7\-|
C|-5-5-5-5-5-5-5-5-5-5-5-5-5-5-5-5-5-5-5-5-5-5-5-5------------------|

D|---------------0-0-0-0-0-0-0-0-0-------------------------------------|
A|---------------0-0-0-0-0-0-0-0-0-------------------------------------|
F|---------------0-0-0-0-0-0-0-0-0---------------------0-------------0-|
C|---------------2-2-2-2-2-2-2-2-2-------------------2---2-------4-----|
G|-4-4-4-4-4-4-4-4-4-4-4-4-4-4-4-4-4-4-4-4-4-4-4-4---------------------|
C|-5-5-5-5-5-5-5-5-5-5-5-5-5-5-5-5-5-5-5-5-5-5-5-5-2-------2/4-4---4---|

Riff 3 (distortion)   "The strangle holds, the insulting names..."
D|-----------------------------------------------------------------|
A|-----------------------------------------------------------------|
F|-----------------------------------------------------------------|
C|-5---------------------------7---9---------------------------7---|
G|-5-5-5-5-5-5-5-5-5-5-5-5-5-5-7-7-9-9-9-9-9-9-9-9-9-9-9-9-9-9-7-7-|
C|-5-5-5-5-5-5-5-5-5-5-5-5-5-5-7-7-9-9-9-9-9-9-9-9-9-9-9-9-9-9-7-7-|
     * * * * * * * * * * * * *   *   * * * * * * * * * * * * *   *

D|-----------------------------------------------------|
A|-----------------------------------------------------|
F|-----------------------------------------------------|
C|-5---------------------------7---9----------------7~-|
G|-5-5-5-5-5-5-5-5-5-5-5-5-5-5-7-7-9-9-9-9-9-9-9-11-7~-|
C|-5-5-5-5-5-5-5-5-5-5-5-5-5-5-7-7-9-9-9-9-9-9-9-11-7~-|
     * * * * * * * * * * * * *   *   * * * * * * *

Riff 4   "Hell's where I was born, hell's where I was raised..."
D|-------------------------------------------------------------|
A|-------------------------------------------------------------|
F|-------------------------------------------------------------|
C|-5--5--5--5-5-4-2--2--2--2-2-0-9--9--9--9-9-0-7--7--7--7-7-0-| x2
G|-5--5--5--5-5-4-2--2--2--2-2-0-9--9--9--9-9-0-7--7--7--7-7-0-|
C|-5--5--5--5-5-4-2--2--2--2-2-0-9--9--9--9-9-0-7--7--7--7-7-0-|
              *              *              *              *

         "Just be still and be..."
D|-------------------|
A|-------------------|
F|-------------------|
C|-5--5--5--5-5-4-2~-|
G|-5--5--5--5-5-4-2~-|
C|-5--5--5--5-5-4-2~-|
              *

Play Fill 1 x1   "And let the noise just fade away..."
Play Riff 2 x1   "Retain the violence..."
Play Riff 3 x1   "The reckoning..."
Play Riff 4 x1   "Hell's where I was born, hell's where I was raised..."

Riff 4 ending:
D|----------------------------------------------|
A|----------------------------------------------|
F|----------------------------------------------|
C|-5--5--5--5-5-4-2--2--2--2-2-0-2--2--2--2-2-0-|
G|-5--5--5--5-5-4-2--2--2--2-2-0-2--2--2--2-2-0-|
C|-5--5--5--5-5-4-2--2--2--2-2-0-2--2--2--2-2-0-|
              *              *              *

Riff 5   "These are the memories they've made..."
D|---------------------------------------------------------------------|
A|---------------------------------------------------------------------|
F|---------------------------------------------------------------------|
C|-3-3-3-3-3-3-3-3-5-5-5-5-5-5-5-5-7-7-7-7-7-7-7-9-9-9-9-10-10-10-10-0-|
G|-3-3-3-3-3-3-3-3-4-4-4-4-4-4-4-4-7-7-7-7-7-7-7-9-9-9-9-10-10-10-10-0-|
C|-3-3-3-3-3-3-3-3-5-5-5-5-5-5-5-5-7-7-7-7-7-7-7-9-9-9-9-10-10-10-10-0-|
   * * * * * * * * * * * * * * * * * * * * * * *   * * *    *  *  *

D|----------------------------------------------------------------------------------------|
A|----------------------------------------------------------------------------------------|
F|----------------------------------------------------------------------------------------|
C|-3-3-3-3-3-3-3-3-5-5-5-5-5-5-5-5-7-7-7-7-7-7-7-9-9-9-9-10-10-10-10-10-0~------------2-2-|
G|-3-3-3-3-3-3-3-3-4-4-4-4-4-4-4-4-7-7-7-7-7-7-7-9-9-9-9-10-10-10-10-10-0~------------2-2-|
C|-3-3-3-3-3-3-3-3-5-5-5-5-5-5-5-5-7-7-7-7-7-7-7-9-9-9-9-10-10-10-10-10-0~------------2-2-|
   * * * * * * * * * * * * * * * * * * * * * * *   * * *    *  *  *  *

Play Riff 1 x1   "Hush is all I need, hush the misery..."
Play Riff 4 x1   "Hell's where I was born, hell's where I was raised..."
Play Fill 1 x1   "... and let the noise just fade away..."

Final chord:
D|---------|
A|-7~------|
F|-0~------|
C|-x-------|
G|-4~------|
C|-5~------|            
Submit corrections

↑ Back to top | Tablatures and chords for acoustic guitar and electric guitar, ukulele, drums are parodies/interpretations of the original songs. You may use it for private study, scholarship, research or language learning purposes only