» » »

Hellogoodbye - Two Weeks In Hawaii Tabs

Artists:  A B C D E F G H I J K L M N O P Q R S T U V W X Y Z # 

Two Weeks In Hawaii Tabs

(ver. 1) Click to play this song!
Hellogoodbye
 Rating:
4.4/5 (7 votes)

 Two Weeks In Hawaii lessons Tabs too difficult? Try these video lessons and learn fast
 
                -------------------------------------------------------------------------------
-------------------------------------------------------------------------------

Tuning: Standard
-------------------------------------------------------------------------------

Chord Reference (Power Chords)
------------------------------

    E  B  C# A  G# F# 
e|--------------------|
B|--------------------|
G|-----4--6--2--------|
D|--2--4--6--2--6--4--|
A|--2--2--4--0--6--4--|
E|--0-----------4--2--|

Listen to the song for when and when not to use palm muting. 
------------------------------------------------------------

Intro
-----

E	B	C#		x2

"You've got your airplane..."
-----------------------------

E	B	C#		x3

E	B	C#	A

"'Cause you've got Hawaii..."
"You've got Polaroid..."
"You are so special..."
-----------------------------

E	B	C#	A	x4

"Your family's rad..."
"Your drawing's rad.."
----------------------

C#		A

E	G#	A	B

C#		A

E	G#	A	B

A	B	C#

A	B	E

Solo
----

e|------------------------------------------|
B|-9----10-9-7-------9-10-9-12---10-9---7---|
G|------------------------------------------|
D|------------------------------------------|
A|------------------------------------------|
E|------------------------------------------|

e|-----------------7-9-7-9-11-9---11--12----|
B|-9-10-9-10-12-10--------------------------|
G|------------------------------------------|
D|------------------------------------------|
A|------------------------------------------|
E|------------------------------------------|

"I hope this makes you smile..."
--------------------------------

G#		C#	B	(F# quick,just before going to G#)	x3

G#		A	B

Repeat: "You are so special..."
-------------------------------

End: "And my heart..."
----------------------

B		E
            
Submit corrections


        Two Weeks In Hawaii lessons Hard to play? Try these video lessons and learn fast Two Weeks In Hawaii lessons
        
↑ Back to top | Tablatures and chords for acoustic guitar and electric guitar, ukulele, drums are parodies/interpretations of the original songs. You may use it for private study, scholarship, research or language learning purposes only