» » »

He Is We - Too Beautiful Tabs

Artists:  A B C D E F G H I J K L M N O P Q R S T U V W X Y Z # 

Too Beautiful Tabs

(ver. 1) Click to play this song!
He Is We
 Rating:
4/5 (4 votes)


 Too Beautiful lessons Tabs too difficult? Try these video lessons and learn fast
 
                I can't find the chords to this song but i wrote some based on what i heard and it 
sounds good
even though the real song is on 2 guitars. It's a little akward to play at first and not 
really for
beginners but once you get the hang of it it is very fun to play and has a very full sound.

You tune your guitar to drop D with a capo on the second fret but only on the d string, 
g string,
b string and e string leaving D and A open.  

Playing an open chord will look like this

e|-2
b|-2
g|-2
d|-2
A|-0
D|-0

Now play the song like so (note that the numbers are on the fret of the guitar as they 
are on
the neck- not up from the capo) :

e|--------5------5--------|
b|--------5------5--------|
g|--------2------2--------|
d|----2------2------2-----|
A| -----------------------|
D|-5----------------------|

e|--------5------5--------|
b|--------5------5--------|
g|--------2------2--------|
d|----2------2------2-----|
A| -----------------------|
D|-0----------------------|

e|--------5------5--------|
b|--------5------5--------|
g|--------2------2--------|
d|----2------2------2-----|
A|-0----------------------|
D|------------------------|

e|--------5------5--------|
b|--------5------5--------|
g|--------2------2--------|
d|----2------2------2-----|
A|-2----------------------|
D| -----------------------|

Do that twice for the intro then for the verse strum:

What kinda man lays his hands on the woman he loves...

e|-5----5----5----5----|
b|-5----5----5----5----|
g|-2----2----2----2----|
d|-2----2----2----2----|      X4 per verse
A|-0----0----0----2----|
D|-4----0----X----X----|

After you finish the verse play this for the prechorus (same strum pattern but you pluck the
bass note at the start of each chord instead of th first strum)

e|------5----------5-------------|
b|------5----------5-------------|
g|------2----------2-------------|
d| -----4 ----------2------------|
A|-5---5------4---4--------------|
D|-X---X -----X---X--------------|

e|------5----------5-----------------|
b|------5----------5-----------------|
g|------4----------4-----------------|
d| -----2 ----------2--------- |  ---|X2
A| -----0----------0-----------------|
D|-4---4 -----2---2------------------|

Then play the chorus (each chord is twice as long)

You are too beauti-full. Your heart needs somethin-

e|-5-------------5----------|
b|-5-------------5----------|
g|-2-------------2----------|
d|-2-------------4----------|
A|-0-------------0----------|
D|-5-------------0--------- |

more. Those shades of blue on that- face of yours hide that smile that beats in your chest

e|-5-------------5----------|
b|-5-------------5----------|
g|-4-------------2----------|
d|-2-------------4----------|
A|-4-------------5----------|
D|-X-------------0--------- |

Repeat intro, verse and chorus. Then the bridge is 2 chords the you strum one time each and
let them ring out for 2 measures each time:

She
Looks in the- mirror she- looks less a- live

e|-5-------5--------5--------5--------|
b|-5-------5--------5--------5--------|
g|-2-------2--------2--------2--------|
d|-2-------4--------2--------4--------|
A|-0-------0--------0--------0--------|
D|-4-------0--------4--------0--------|

she 
Lifts up her- shirt and she- sees she has- five

e|-5-------5--------5--------5--------|
b|-5-------5--------5--------5--------|
g|-2-------2--------2--------2--------|
d|-2-------4--------2--------4--------|
A|-0-------0--------0--------0--------|
D|-4-------0--------4--------0--------|

(Start strumming them)

Fingers branded- on her side. She feels it all 

e|-5----------------5-----------------|
b|-5----------------5-----------------|
g|-2----------------2-----------------|
d|-2----------------2-----------------|
A|-0----------------0-----------------|
D|-4----------------4-----------------|

(palm mute the two chords and build into a strum while you sing the next part)

Now, but she doesn't- cry. No she doesn't cry

Then you sing the chorus and make sure you belt it like a champion and then finish it of 
with a
shnazzy outro that sounds like the intro but not.... Will anyone even read this tab?
            
Submit corrections



        Too Beautiful lessons Hard to play? Try these video lessons and learn fast Too Beautiful lessons
        
↑ Back to top | Tablatures and chords for acoustic guitar and electric guitar, ukulele, drums are parodies/interpretations of the original songs. You may use it for private study, scholarship, research or language learning purposes only