» » »

Hedley - Sink Or Swim Tabs

Artists:  A B C D E F G H I J K L M N O P Q R S T U V W X Y Z # 

Sink Or Swim Tabs

(ver. 1) Click to play this song!
Hedley
 Rating:
3.8/5 (26 votes)

 Sink Or Swim  lessons Tabs too difficult? Try these video lessons and learn fast
 
                Intro/verse:

Guitar 1, 6x (no guitar 2)
D#|------------------------------------------------------|
A#|------------------------------------8-----------------|
F#|----10----10------9----9------10-----------9----10----| Let every note ring out for this riff
C#|-77----77----7777---77---7777----77---7777---77----77-|
G#|------------------------------------------------------|
C#|------------------------------------------------------|

Chorus (both guitars):
D#|-----------2x------------|------------------------------------------|
A#|-------------------------|------------------------------------------|
F#|-10----------7-----------|-------------7----------------------------|
C#|-8-----3-----5-----0~-7~-|-8-----3-----5-----0000-7777-8-----10-----|
G#|-8--x8-3--x8-5--x8-0~-7~-|-8--x8-3--x8-5--x8-0000-7777-8--x8-10--x8-|
C#|-8-----3-----5-----0~-7~-|-8-----3-----5-----0000-7777-8-----10-----|

Repeat:
Intro 2x

Verse 2:

Guitar 1
D#|-----------------2x------|--------------------------------------------------|
A#|-------------------------|--------------------------------------------------|
F#|-------------------------|------------------------(silence)-----------------|
C#|-0-----2-----3-----5-----|--------------------------------------------------|
G#|-0--x8-2--x8-3--x8-5--x8-|--------------------------------------------------|
C#|-0-----2-----3-----5-----|--------------------------------------------------|
    *     *     *     *  
Guitar 2    
D#|----------------2x-------|------------------------------------------------------|
A#|-------------------------|------------------------------------8-----------------|
F#|-------------------------|----10----10------9----9------10-----------9----10----|
C#|----(silence)------------|-77----77----7777---77---7777----77---7777---77----77-|
G#|-------------------------|------------------------------------------------------|
C#|-------------------5--x8-|------------------------------------------------------|

Repeat:
Chorus

Bridge

Guitar 1
D#|------------------------------------------------|
A#|------------------------------------------------|
F#|-7----------------------------------------------|
C#|-5-----8-----10-----0---------------------------|
G#|-5--x8-8--x8-10--x8-0--x8-2-----3-------------7-|
C#|-5-----8-----10-----0-----2--x8-3--x8-5555-7777-|
                       *     *     *
Guitar 2
D#|------------------------------------------------------------------------------------------------------|
A#|------------------------------------------------------------------------------------8-----------------|
F#|-121212-101010-x-9/101010~-9b10r--------------------10----10------9----9------10-----------9----10----|
C#|---------------------------------12~--(silence)--77----77----7777---77---7777----77---7777---77----77-|
G#|------------------------------------------------------------------------------------------------------|
C#|------------------------------------------------------------------------------------------------------|

Solo:

Guitar 1
D#|-10~~~~-----------------------------------------------------------------------------|
A#|-13b15~~~~r--------------------------10~~~~~--13~~~~--6h8p6~~~~~~--5h6p5-3h5p3-5/6~-| 
F#|------------10h12-10~---10~-9b10r~---12b14~~~~~~~~~r--------------------------------|
C#|------------------------------------------------------==3==--------==3==-==3==------|
G#|------------------------------------------------------------------------------------|
C#|-------------------------------------------------------%----------------------------| 
                                 SLOW bend^
Guitar 2
D#|--------------------------------------------------------|
A#|--------------------------------------------------------|
F#|--------------------------------------------------------|
C#|-3~-3~----5-----5~-5-----0--x8-2-----3-----5555-7777-8~-|
G#|-0~-0~----5--x7-5~-5--x8-0-----2--x8-3--x8-5555-7777-8~-|
C#|-0~-0~----5-----5~-5-----0-----2-----3-----5555-7777-8~-|

Guitar 3 (clean) - starts at the % symbol
D#|--------------------------------------------------------------------------------|
A#|-6h8p6~-5h6p5-3h5p3-------------------------------------------------------------|
F#|------------------------------5~55~5555-7~7~7777-----------t~t~ttt-5~55~5555-7~-| t = 10
C#|-==3==--==3==-==3==---8~8~888-3~33~3333-5~5~5555-0~00-7~77-8~8~888-3~33~3333-5~-|
G#|----------------------8~8~888-3~33~3333-5~5~5555-0~00-7~77-8~8~888-3~33~3333-5~-|
C#|----------------------8~8~888-3~33~3333-5~5~5555-0~00-7~77-8~8~888-3~33~3333-5~-|

Final chorus (both guitars 1 & 2):
D#|------------------------------------------------------------------------------------------|
A#|------------------------------------------------------------------------------------------|
F#|-----------10----------7-------------------------10----------7----------------------------|
C#|-0~00-7~7~-8-----3-----5-----0~-7~-8-----10------8-----3-----5-----0000-7777-8-----10-----|
G#|-0~00-7~7~-8--x8-3--x8-5--x8-0~-7~-8--x8-10--x8--8--x8-3--x8-5--x8-0000-7777-8--x8-10--x8-|
C#|-0~00-7~7~-8-----3-----5-----0~-7~-8-----10------8-----3-----5-----0000-7777-8-----10-----|

Outro:

Guitar 1 (no guitar 2)
D#|------------------------------------------------------|     |----||
A#|------------------------------------8-----------------|     |----||
F#|----10----10------9----9------10-----------9----10----| 4x  |-9~-||
C#|-77----77----7777---77---7777----77---7777---77----77-|     |-7~-||
G#|------------------------------------------------------|     |----||
C#|------------------------------------------------------|     |----||
__________________________________________________________________________________________
DROP D VERSION

Intro/verse:

Guitar 1, 6x (no guitar 2)
e|--------------------------------------------------|
B|---------------------------------7----------------|
G|----9----9------8----8------9-----------8----9----| Let every note ring out for this riff
D|-66---66---6666---66---6666---66---6666---66---66-|
A|--------------------------------------------------|
D|--------------------------------------------------|

Chorus (both guitars):
e|-----------2x------------|-----------------------------------------|
B|-------------------------|-----------------------------------------|
G|-9-----------6-----6~----|-------------6-----6666------------------|
D|-7-----2-----4-----6~-6~-|-7-----2-----4-----6666-6666-7-----9-----|
A|-7--x8-2--x8-4--x8-4~-6~-|-7--x8-2--x8-4--x8-4444-6666-7--x8-9--x8-|
D|-7-----2-----4--------6~-|-7-----2-----4----------6666-7-----9-----|

Repeat:
Intro 2x

Verse 2:

Guitar 1
e|-----------------2x------|--------------------------------------------------|
B|-------------------------|--------------------------------------------------|
G|-6-----------------------|------------------------(silence)-----------------|
D|-6-----1-----2-----4-----|--------------------------------------------------|
A|-4--x8-1--x8-2--x8-4--x8-|--------------------------------------------------|
D|-------1-----2-----4-----|--------------------------------------------------|
   *     *     *     *  
Guitar 2    
e|----------------2x-------|--------------------------------------------------|
B|-------------------------|---------------------------------7----------------|
G|-------------------------|----9----9------8----8------9-----------8----9----|
D|---(silence)-------------|-66---66---6666---66---6666---66---6666---66---66-|
A|-------------------------|--------------------------------------------------|
D|-------------------4--x8-|--------------------------------------------------|

Repeat:
Chorus

Bridge

Guitar 1
e|-----------------------------------------------|
B|-----------------------------------------------|
G|-6---------------------------------------------|
D|-4-----7-----9-----6---------------------------|
A|-4--x8-7--x8-9--x9-4--x8-1-----2-------------6-|
D|-4-----7-----9-----------1--x8-2--x8-4444-6666-|
                     *     *     *
Guitar 2
e|---------------------------------------------------------------------------------------------------|
B|----------------------------------------------------------------------------------7----------------|
G|-11-11-11-9-9-9-x-8/9-9-9~-8b9r----------------------9----9------8----8------9-----------8----9----|
D|--------------------------------11~---(silence)---66---66---6666---66---6666---66---6666---66---66-|
A|---------------------------------------------------------------------------------------------------|
D|---------------------------------------------------------------------------------------------------|

Solo:

Guitar 1
e|-9~~~~~------------------------------------------------------------------------|
B|-12b14~~~~r----------------------9~~~~~--12~~~~--5h7p5~~~~~~--4h5p4-2h4p2-4/5~-| 
G|------------9h11-9~---9~-8b9r~---11b13~~~~~~~~~r-------------------------------|
D|-------------------------------------------------==3==--------==3==-==3==------|
A|-------------------------------------------------------------------------------|
D|-------------------------------------------------------%-----------------------| 
                              SLOW bend^
Guitar 2
e|--------------------------------------------------------|
B|--------------------------------------------------------|
G|-------------------------6------------------------------|
D|-2~-2~----4-----4~-4-----6--x8-1-----2-----4444-6666-7~-|
A|-4~-4~----4--x7-4~-4--x8-4-----1--x8-2--x8-4444-6666-7~-|
D|----------4-----4~-4-----------1-----2-----4444-6666-7~-|

Guitar 3 (clean) - starts at the % symbol
e|--------------------------------------------------------------------------------|
B|-5h7p5~-4h5p4-2h4p2-------------------------------------------------------------|
G|------------------------------4~44~4444-6~6~6666-----------9~9~999-4~44~4444-6~-|
D|-==3==--==3==-==3==---7~7~777-2~22~2222-4~4~4444-6~66-6~66-7~7~777-2~22~2222-4~-|
A|----------------------7~7~777-2~22~2222-4~4~4444-4~44-6~66-7~7~777-2~22~2222-4~-|
D|----------------------7~7~777-2~22~2222-4~4~4444------6~66-7~7~777-2~22~2222-4~-|

Final chorus (both guitars 1 & 2):
e|----------------------------------------------------------------------------------------|
B|----------------------------------------------------------------------------------------|
G|-6~66------9-----------6-----6~-----------------9-----------6-----6666------------------|
D|-6~66-6~6~-7-----2-----4-----6~-6~-7-----9------7-----2-----4-----6666-6666-7-----9-----|
A|-4~44-6~6~-7--x8-2--x8-4--x8-4~-6~-7--x8-9--x8--7--x8-2--x8-4--x8-4444-6666-7--x8-9--x8-|
D|------6~6~-7-----2-----4--------6~-7-----9------7-----2-----4----------6666-7-----9-----|

Outro:

Guitar 1 (no guitar 2)
e|--------------------------------------------------|     |----||
B|---------------------------------7----------------|     |----||
G|----9----9------8----8------9-----------8----9----| 4x  |-8~-||
D|-66---66---6666---66---6666---66---6666---66---66-|     |-6~-||
A|--------------------------------------------------|     |----||
D|--------------------------------------------------|     |----||            
Submit corrections


        Sink Or Swim  lessons Hard to play? Try these video lessons and learn fast Sink Or Swim  lessons
        
↑ Back to top | Tablatures and chords for acoustic guitar and electric guitar, ukulele, drums are parodies/interpretations of the original songs. You may use it for private study, scholarship, research or language learning purposes only