» » »

Hedley - Perfect Tabs

Artists:  A B C D E F G H I J K L M N O P Q R S T U V W X Y Z # 

Perfect Tabs

(ver. 1) Click to play this song!
Hedley
 Rating:
4.3/5 (27 votes)

 Perfect lessons Tabs too difficult? Try these video lessons and learn fast
 
                [Solo]

e|----------3--------------------3-----------------------|
B|----1-0-1----1-0-1-------1-0-1----1-0-1----------------|
G|-------------------2--------------------0--------------|
D|-------------------------------------------------------|
A|--3--------------------3-------------------------------|
E|-------------------------------------------------------|

e|----------3--------------------3-----------------------|
B|----1-0-1----1-0-1-------1-0-1----1-0-1-3--------------|
G|-------------------2-----------------------------------|
D|-------------------------------------------------------|
A|--3--------------------3-------------------------------|
E|-------------------------------------------------------|            
Submit corrections


        Perfect lessons Hard to play? Try these video lessons and learn fast Perfect lessons
        
↑ Back to top | Tablatures and chords for acoustic guitar and electric guitar, ukulele, drums are parodies/interpretations of the original songs. You may use it for private study, scholarship, research or language learning purposes only