» » »

Hedley - Dying To Live Again Tabs

Artists:  A B C D E F G H I J K L M N O P Q R S T U V W X Y Z # 

Dying To Live Again Tabs

(ver. 1) Click to play this song!
Hedley
 Rating:
4.2/5 (30 votes)

 Dying To Live Again lessons Tabs too difficult? Try these video lessons and learn fast
 
                [Intro]

e|-------------11-9----------------11p9--------------------------|
B|---------------------------------------------------------------|
G|-10h11p10------------10h11p10----------------------------------|
D|---------------------------------------------------------------|
A|---------------------------------------------------------------|
E|---------------------------------------------------------------|

e|----8-9--8-----------------------------------------------------|
B|-11--------11--9-11--------------------------------------------|
G|---------------------------------------------------------------|
D|------------------------8-10--11-10-8--------------------------|
A|---------------------11----------------11----------------------|
E|---------------------------------------------------------------|            
Submit corrections


        Dying To Live Again lessons Hard to play? Try these video lessons and learn fast Dying To Live Again lessons
        
↑ Back to top | Tablatures and chords for acoustic guitar and electric guitar, ukulele, drums are parodies/interpretations of the original songs. You may use it for private study, scholarship, research or language learning purposes only