» » »

Hedley - Cha-ching Tabs

Artists:  A B C D E F G H I J K L M N O P Q R S T U V W X Y Z # 

Cha-ching Tabs

(ver. 1) Click to play this song!
Hedley
 Rating:
4/5 (4 votes)

 Cha-ching lessons Tabs too difficult? Try these video lessons and learn fast
 
                Intro/verse: 

Guitar 1                     Play "1.", then play the first bar, skip "1." and play "2." instead
e|------------------------------------|-----------------------------1.-|-------------------------2.-||
B|------------------------------------|--------------------------------|----------------------------||
G|--------------------------7777-5555-|--------------------------5--x8-|----------------------------||
D|-7--x16-4--x8-5--x8-----------------|-7--x16-4--x8-5--x8-------------|-7--x16-------5--x8-(pause)-||
A|--------------------7--x8-----------|--------------------7--x8-------|--------5--x8---------------||
E|------------------------------------|--------------------------------|----------------------------||

Guitar 2 (comes in 0:21)                              
e|-------------------------------------------------------------------|
B|--------.-----.--.--.--.--.--.----------10~~~~-6~~~~-3~~~~---------|
G|--------2-----2--2--0--0--2--2-----------9~~~~-5~~~~-2~~~~---------|
D|--------2--x8-4--4--5--5--2--2--(pause)--------------------(pause)-|
A|-12\----0-----0--0--0--0--0--0-------------------------------------|
E|-------------------------------------------------------------------|
                                           ^Some delay effect is used on these notes
Chorus (both guitars):
e|-----------------------------------------------------------------------------------------|
B|-----------------------------------------------------------------------------------------|
G|-2-----7-----------2-----7-------------------2-----7-----------2-----7-------------------|
D|-2--x4-7--x4-5-----2--x8-7--x4-5-------------2--x4-7--x4-5-----2--x8-7--x4-5-----5~~~~~--|
A|-0-----5-----5--x4-0-----5-----5--x4-(pause)-0-----5-----5--x4-0-----5-----5--x3-5~~~~~--|
E|-------------3-----------------3-------------------------3-----------------3-----3~~~~~--|

Preverse:
e|---------------------------------------------------------------------|
B|-10-10-8---8-8---------------------10-10-8---8-8---------------------|
G|---------9-----9-7-9-9-7-6-7-7-6-----------9-----9-7-9-9-7-6---------|
D|---------------------------------7---------------------------7~~~~---|
A|---------------------------------------------------------------------|
E|---------------------------------------------------------------------|

Repeat:
Verse - for 1st ending, play the last note (G5) 4x and pause instead of playing it 8x
Chorus

Bridge: 

Guitar 1
e|-----------------------------------|     |---------------------------------------.------|
B|-10-10-8---8-8---------------------|     |-10-10-8---8-8---.------.------.----10-7------|
G|---------9-----9-7-9-9-7-6-7-7-6---| 5x  |---------9-----9-7----7-6----7-6--------------|
D|---------------------------------7-|     |----------------------------------------------|
A|-----------------------------------|     |----------------------------------------------|
E|-----------------------------------|     |----------------------------------------------|

Guitar 2                                                                     V This section is fingerpicked
e|---------------------------------|     |--------------------------------------------------------3~~~-|
B|---------------------------------|     |-------------------------------------------10~~~~\-----------|
G|---------------------------------| 5x  |--------------------------------------------------------0~~~-|
D|-----2-0~--0-0-------------------|     |-----2-----------------------5555-------h4/7~~~~~\-0~~~~-----|
A|---------------0~--0-3p0-3p0-----|     |-------3~--3-3~------555555555555-0~~~~----------------------|
E|-1-1-------------------------3-0-|     |-1-1-------------3333333333333333----------------------------|
                                                           ********Gradually palm mute less & less
Repeat:
Chorus 1x

Last Chorus:

Guitar 1
e|-----------------------------------------------------------------------------------------|
B|-----------------------------------------------------------------------------------------|
G|-2-----7-----------2-----7-------------------2-----7-----------2-----7-------------------|
D|-2--x4-7--x4-5-----2--x8-7--x4-5-------------2--x4-7--x4-5-----2--x8-7--x4-5-----5~~~~~--|
A|-0-----5-----5--x4-0-----5-----5--x4-(pause)-0-----5-----5--x4-0-----5-----5--x3-5~~~~~--|
E|-------------3-----------------3-------------------------3-----------------3-----3~~~~~--|

Guitar 2, 2x
e|-----------------------------------------------------------------|
B|-10-10-8---8-8---------------------10-10-8---8-8-----------.-----|
G|---------9-----9-7-9-9-7-6-7-7-6-----------9-----9-7-9-9-7-6-----|
D|---------------------------------7-------------------------------|
A|-----------------------------------------------------------------|
E|-----------------------------------------------------------------|

Outro (both guitars):
e|-------------------------------------------------|     |--------|
B|-------------------------------------------------|     |--------|
G|-2-----7-----------7-----2-----7-----------7-----| 2x  |-2~-----|
D|-2--x4-7--x4-5-----7--x4-2-----7--x4-5-----7--x4-|     |-2~-----|
A|-0-----5-----5--x4-5-----0--x4-5-----5--x4-5-----|     |-0~-----|
E|-------------3-----------------------3-----------|     |--------|            
Submit corrections


        Cha-ching lessons Hard to play? Try these video lessons and learn fast Cha-ching lessons
        
↑ Back to top | Tablatures and chords for acoustic guitar and electric guitar, ukulele, drums are parodies/interpretations of the original songs. You may use it for private study, scholarship, research or language learning purposes only