» » »

Hedley - Bones Shatter Tabs

Artists:  A B C D E F G H I J K L M N O P Q R S T U V W X Y Z # 

Bones Shatter Tabs

(ver. 1) Click to play this song!
Hedley
 Rating:
4/5 (4 votes)

 Bones Shatter lessons Tabs too difficult? Try these video lessons and learn fast
 
                Tuning: Standard (EADGBe)

Bass intro:
e|---------------------------------------------------|
B|---------------------------------------------------|
G|---------------------------------------------------|
D|---------------------------------------------------|
A|-.--.--------.--.--.--2-----.--.---.--.--.--.------|
E|-4--4--4-2-0-4--4--4----4-2-0--0--00--2--2--2--222-|

Verse:
e|----------------------------------------------------------------------|-----------1.----------------|
B|----.-----------.--.----------.-----------.--.---------.-----------.--|--------------------7~-------|
G|-.--4-----------4--3----------4-----------4--3------.--4-----------4--|-.-----------6b7r~------88~\-|
D|-6-----8\4------------44---------8\4-----------44---6-----8\4---------|-8--44~/6~-------------------|
A|-----------2-------------2-----------2--------------------------------|-----------------------------|
E|-------------4-------------0-----------4----------2-----------4-2-----|-----------------------------|

e|-------------------2.---------------------------||
B|------------.--.---------.-----------.--7~------|| Play "1.", play the first bar, skip "1."
G|-------4~\--4--3---------4-----------6--6~--88~-|| then play "2.".
D|-8\4-------------44---------8\4-----------------||
A|-----2--------------2-----------2---------------||
E|----------------------0-----------4-------------||

Prechorus:
e|---------------------------------------------------------|
B|---------------------------7-7-7----------7-7-7----------|
G|-9-----4-----9-----4-------9-9-9----------9-9-9----------|
D|-9--x8-4--x8-9--x8-4--x8-99999999-6-----99999999----44b~-|
A|-7-----2-----7-----2-----77777777-6--x8-77777777-44444b~-|
E|----------------------------------4--------------22222b~-|
   *     *     *     *     ** * * * *              ****
Chorus:

Guitar 1                                                                                                 
e|-------------------------------------------------------------------------------------------------------|
B|-------------------------------------------------------------------------------------------------------|
G|-4------------------------4------------------4-----6666-8888-9-----11----------4-----------------------|
D|-4--x16-2-----4-----6-----4--x8-2-----4------4--x8-6666-8888-9--x8-9--x8-6-----4--x8-2-----4------6~~~-|
A|-2------2--x8-4--x8-6--x8-2-----2--x6-4--x10-2-----4444-6666-7-----7-----6--x8-2-----2--x6-4--x10-6~~~-|
E|--------0-----2-----4-----------0-----2----------------------------------4-----------0-----2------4~~~-|
                                                                                                  
Guitar 2                                                                              
e|----2~-0--------2~-0-----------2~----------------------|-7-----6666-4444-|
B|---------4-2---------4-2----------4-2---2~-2~---2-4-2~-|-7--x8-7777-4444-|
G|-4~----------4~----------4~-----------4-------4--------|-----------------|
D|----------------------------2~-------------------------|-----------------|
A|-------------------------------------------------------|-----------------|
E|-----------------------------------2x------------------|--------2x-------|

e|----2~-0--------2~-0-----------2~----------------------------------------|
B|---------4-2---------4-2----------4-2---2~-2~---2-4-2~-------------------|
G|-4~----------4~----------4~-----------4-------4--------4~~~~~~~\\\\------|
D|----------------------------2~-------------------------------------------|
A|-------------------------------------------------------------------------|
E|-------------------------------------------------------------------------|

Verse 2:

Guitar 1
e|----------------------------------------------------------------------|-----------1.---------------------|
B|----.-----------.--.----------.-----------.--.----------.-----------.-|-------------------------7~-------|
G|-.--4-----------4--3----------4-----------4--3-------.--4-----------4-|-.--------------6b7r~--------88~\-|
D|-6-----8\4------------44---------8\4------------44---6-----8\4--------|-8--44~/6~------------------------|
A|-----------2-.-----------2-.---------2-.-------------------------.----|----------------------------------|
E|-------------4-------------0-----------4-----------2-----------4-2----|----------------------------------|

Guitar 2 (listen closely for this)
e|-------------------------------------------------------------------------------------------------|
B|----------------------------------------------------------------------------------.--------------|
G|-----------------------------------------------------------------4~\-----------.--4----------xxx-|
D|-------------------------------------------------------------------------------6-----8\4---------|
A|---------------------------7~\-----------------------------------------------------------2-------|
E|---------------------------0~--------------------------------------------------------------4-----|

Repeat:
Prechorus
Chorus

Bridge:

Guitar 1         V Upstroke       V 2:22 - volume increase
e|--------|----3x-----|---------------------------------------------|
B|--------|-----------|---------------------------------------------|
G|--------|-----^6~---|-------------------------------3-------------|
D|-(6~)---|-2~--^6~---|--(pause)--6~---2~---4~~~~~~~~-4~~~~~~~~~~~~-|
A|-(6~)---|-2~--^4~---|-----------6~---2~---4~~~~~~~~-4~~~~~~~~~~~~-|
E|-(4~)---|-0~--------|-----------4~---0~---2~~~~~~~~~~~~~~~~~~~~~~-|

e|--------|-----------|---------------------------------------------|
B|--------|------7~---|---------------------------------------------|
G|-(4~)---|-4~--------|---------------------------------------------|
D|--------|-----------|--(silence)----------------------------------|
A|--------|-----------|---------------------------------------------|
E|--------|----3x-----|---------------------------------------------|

Repeat:
Chorus

Final Chorus (3:01)
Guitar 1                                                                                               
e|-----------------------------|------------|
B|-----------------------------|------------|
G|-4-----6666-8888-9-----11----|------------|
D|-4--x8-6666-8888-9--x8-9--x8-|-6~-6~-6-6~-|
A|-2-----4444-6666-7-----7-----|-6~-6~-6-6~-|
E|-----------------------------|-4~-4~-4-4~-|

Guitar 2 (follows the melody of the verse riff)
e|----7------------7--6----------7------------7--6------|-----------------------------|
B|-9-----11\7-0----------77-0-------11\7-0---------77---|-12~~~~-12~~~~-12----12~~~~~-|
G|------------------------------------------------------|-14b16~-14b16~-14b16-14b16~~-|
D|--------------6-------------2------------6------------|-----------------------------|
A|----------------------------------------------------9-|-----------------------------|
E|-------------------2x---------------------------------|-----------------------------|            
Submit corrections


        Bones Shatter lessons Hard to play? Try these video lessons and learn fast Bones Shatter lessons
        
↑ Back to top | Tablatures and chords for acoustic guitar and electric guitar, ukulele, drums are parodies/interpretations of the original songs. You may use it for private study, scholarship, research or language learning purposes only