» » »

Hedley - Better Days Tabs

Artists:  A B C D E F G H I J K L M N O P Q R S T U V W X Y Z # 

Better Days Tabs

(ver. 1) Click to play this song!
Hedley
 Rating:
4.3/5 (10 votes)

 Better Days lessons Tabs too difficult? Try these video lessons and learn fast
 
                [Intro]

          C                   G                 Am                 F

e|--------------0---|--------------0---|--------------0---|--1---------------|
B|----1---1---1---1-|----0---0---0---0-|----1---1---1---1-|--1---------------|
G|----------0-------|----------0-------|----------2-------|--2---------------|
D|------2-----------|------0-----------|------2-----------|--3---------------|
A|--3---------------|------------------|--0---------------|--3---------------|
E|------------------|--3---------------|------------------|--1---------------|


[Verse] - play D and G string in quick sucsession

         C                  G                 Am               F
                 
e|-------------0-x-|-------------3-x-|-------------0-x-|-------------1-x-|
B|----------1--1-x-|----------0--0-x-|----------1--1-x-|----------1--1-x-|
G|------0------0-x-|------0------0-x-|------2------2-x-|------2------2-x-|
D|----2---2----2-x-|----0---0----0-x-|----2---2----2-x-|----3---3----3-x-|
A|--3----------3-x-|-------------2-x-|--0----------0-x-|-------------3-x-|
E|---------------x-|--3----------3-x-|---------------x-|--1----------1-x-|

Repeat x 3

[Chorus]
         C                   G                 Am                 F

e|--------------0---|--------------0---|--------------0---|--------------1---|
B|----1---1---1---1-|----0---0---0---0-|----1---1---1---1-|----1---1---1---1-|
G|----------0-------|----------0-------|----------2-------|----------2-------|
D|------2-----------|------0-----------|------2-----------|------3-----------|
A|--3---------------|------------------|--0---------------|------------------|
E|------------------|--3---------------|------------------|--1---------------|

e|--------------0---|--------------0---|--------------0---|--1---------------|
B|----1---1---1---1-|----0---0---0---0-|----1---1---1---1-|--1---------------|
G|----------0-------|----------0-------|----------2-------|--2---------------|
D|------2-----------|------0-----------|------2-----------|--3---------------|
A|--3---------------|------------------|--0---------------|--3---------------|
E|------------------|--3---------------|------------------|--1---------------|

               D DUD 

e|-------------0-000-x-|-------------3-333-x-|-------------0-000x-|-------------1-111x-|
B|----------1--1-111-x-|----------0--0-000-x-|----------1--1-111x-|----------1--1-111x-|
G|------0------0-000-x-|------0------0-000-x-|------2------2-222x-|------2------2-222x-|
D|----2---2----2-222-x-|----0---0----0-000-x-|----2---2----2-222x-|----3---3----3-222x-|
A|--3----------3-333-x-|-------------2-222-x-|--0----------0-000x-|-------------3-333x-|
E|-------------------x-|--3----------3-333-x-|------------------x-|--1----------1-111x-|

e|-------------0-000-x-|-------------3-333-x-|-------------0-000x-|-------------1-111x-|--0-x-|
B|----------1--1-111-x-|----------0--0-000-x-|----------1--1-111x-|----------1--1-111x-|--1-x-|
G|------0------0-000-x-|------0------0-000-x-|------2------2-222x-|------2------2-222x-|--0-x-|
D|----2---2----2-222-x-|----0---0----0-000-x-|----2---2----2-222x-|----3---3----3-222x-|--2-x-|
A|--3----------3-333-x-|-------------2-222-x-|--0----------0-000x-|-------------3-333x-|--3-x-|
E|-------------------x-|--3----------3-333-x-|------------------x-|--1----------1-111x-|--3-x-|

[Verse]

         C                  G                 Am               F
                 
e|-------------0-x-|-------------3-x-|-------------0-x-|-------------1-x-|
B|----------1--1-x-|----------0--0-x-|----------1--1-x-|----------1--1-x-|
G|------0------0-x-|------0------0-x-|------2------2-x-|------2------2-x-|
D|----2---2----2-x-|----0---0----0-x-|----2---2----2-x-|----3---3----3-x-|
A|--3----------3-x-|-------------2-x-|--0----------0-x-|-------------3-x-|
E|---------------x-|--3----------3-x-|---------------x-|--1----------1-x-|

Repeat x 3

[Chorus]
         C                   G                 Am                 F

e|--------------0---|--------------0---|--------------0---|--------------1---|
B|----1---1---1---1-|----0---0---0---0-|----1---1---1---1-|----1---1---1---1-|
G|----------0-------|----------0-------|----------2-------|----------2-------|
D|------2-----------|------0-----------|------2-----------|------3-----------|
A|--3---------------|------------------|--0---------------|------------------|
E|------------------|--3---------------|------------------|--1---------------|

e|--------------0---|--------------0---|--------------0---|--1---------------|
B|----1---1---1---1-|----0---0---0---0-|----1---1---1---1-|--1---------------|
G|----------0-------|----------0-------|----------2-------|--2---------------|
D|------2-----------|------0-----------|------2-----------|--3---------------|
A|--3---------------|------------------|--0---------------|--3---------------|
E|------------------|--3---------------|------------------|--1---------------|

              
e|-------------0-000-x-|-------------3-333-x-|-------------0-000x-|-------------1-111x-|
B|----------1--1-111-x-|----------0--0-000-x-|----------1--1-111x-|----------1--1-111x-|
G|------0------0-000-x-|------0------0-000-x-|------2------2-222x-|------2------2-222x-|
D|----2---2----2-222-x-|----0---0----0-000-x-|----2---2----2-222x-|----3---3----3-222x-|
A|--3----------3-333-x-|-------------2-222-x-|--0----------0-000x-|-------------3-333x-|
E|-------------------x-|--3----------3-333-x-|------------------x-|--1----------1-111x-|

e|-------------0-000-x-|-------------3-333-x-|-------------0-000x-|-------------1-111x-|--0-x-|
B|----------1--1-111-x-|----------0--0-000-x-|----------1--1-111x-|----------1--1-111x-|--1-x-|
G|------0------0-000-x-|------0------0-000-x-|------2------2-222x-|------2------2-222x-|--0-x-|
D|----2---2----2-222-x-|----0---0----0-000-x-|----2---2----2-222x-|----3---3----3-222x-|--2-x-|
A|--3----------3-333-x-|-------------2-222-x-|--0----------0-000x-|-------------3-333x-|--3-x-|
E|-------------------x-|--3----------3-333-x-|------------------x-|--1----------1-111x-|--3-x-|

[Bridge]
          C                   G                Am                   F

e|--0-0-0-0-0-0-1-1-|--3-3-3-3-3-3-3-3-|--0-0-0-0-0-0-0-0-|--1-1-1-1-1-1-1-1-|
B|--1-1-1-1-1-1-0-0-|--0-0-0-0-0-0-0-0-|--1-1-1-1-1-1-1-1-|--1-1-1-1-1-1-1-1-|
G|--0-0-0-0-0-0-1-1-|--0-0-0-0-0-0-0-0-|--2-2-2-2-2-2-2-2-|--2-2-2-2-2-2-2-2-|
D|--2---2---2---2---|--0---0---0---0---|--2---2---2---2---|--3---3---3---3---|
A|--3---3---3---3---|--2---2---2---2---|--0---0---0---0---|--3---3---3---3---|
E|------------------|--3---3---3---3---|------------------|--1---1---1---1---|

e|--0-0-0-0-0-0-1-1-|--3-3-3-3-3-3-3-3-|--0-0-0-0-0-0-0-0-|--1-1-1-1-1-1-1-1-|
B|--1-1-1-1-1-1-0-0-|--0-0-0-0-0-0-0-0-|--1-1-1-1-1-1-1-1-|--1-1-1-1-1-1-1-1-|
G|--0-0-0-0-0-0-1-1-|--0-0-0-0-0-0-0-0-|--2-2-2-2-2-2-2-2-|--2-2-2-2-2-2-2-2-|
D|--2---2---2---2---|--0---0---0---0---|--2---2---2---2---|--3---3---3-3-3-3-|
A|--3---3---3---3---|--2---2---2---2---|--0---0---0---0---|--3---3---3-2-3-3-|
E|------------------|--3---3---3---3---|------------------|--1---1---1-1-1-1-|

[Outro]
          C                   G                Am                  F

e|--------------0---|--------------0---|--------------0---|--1---------------|
B|----1---1---1---1-|----0---0---0---0-|----1---1---1---1-|--1---------------|
G|----------0-------|----------0-------|----------2-------|--2---------------|
D|------2-----------|------0-----------|------2-----------|--3---------------|
A|--3---------------|------------------|--0---------------|--3---------------|
E|------------------|--3---------------|------------------|--1---------------|


e|-------------0-000-x-|-------------3-333-x-|-------------0-000x-|-------------1-111x-|
B|----------1--1-111-x-|----------0--0-000-x-|----------1--1-111x-|----------1--1-111x-|
G|------0------0-000-x-|------0------0-000-x-|------2------2-222x-|------2------2-222x-|
D|----2---2----2-222-x-|----0---0----0-000-x-|----2---2----2-222x-|----3---3----3-222x-|
A|--3----------3-333-x-|-------------2-222-x-|--0----------0-000x-|-------------3-333x-|
E|-------------------x-|--3----------3-333-x-|------------------x-|--1----------1-111x-|

Repeat x 2
             
e|-------------0-000-x-|-------------3-333-x-|-------------0-000x-|-------------1-111x-|--0-x-|
B|----------1--1-111-x-|----------0--0-000-x-|----------1--1-111x-|----------1--1-111x-|--1-x-|
G|------0------0-000-x-|------0------0-000-x-|------2------2-222x-|------2------2-222x-|--0-x-|
D|----2---2----2-222-x-|----0---0----0-000-x-|----2---2----2-222x-|----3---3----3-222x-|--2-x-|
A|--3----------3-333-x-|-------------2-222-x-|--0----------0-000x-|-------------3-333x-|--3-x-|
E|-------------------x-|--3----------3-333-x-|------------------x-|--1----------1-111x-|--3-x-|            
Submit corrections


        Better Days lessons Hard to play? Try these video lessons and learn fast Better Days lessons
        
↑ Back to top | Tablatures and chords for acoustic guitar and electric guitar, ukulele, drums are parodies/interpretations of the original songs. You may use it for private study, scholarship, research or language learning purposes only