» » »

Hedley - Been There Done That Tabs

Artists:  A B C D E F G H I J K L M N O P Q R S T U V W X Y Z # 

Been There Done That Tabs

(ver. 1) Click to play this song!
Hedley
 Rating:
4/5 (4 votes)

 Been There Done That lessons Tabs too difficult? Try these video lessons and learn fast
 
                
Intro:
e|-----------------------------|
B|-----------------------------|
G|--------------------------2~-| 6x
D|----12~----7~-------------2~-|
A|-00-----00----00-4b5r~-00-0~-|
D|-----------------------------|

Verse:

Guitar 1
e|-------------------------------------------------------------------------------|
B|--------------------222--222--------------------------------222--222-----------|
G|-22--222--222--222--222--222--444--444--222--222--222--222--222--222--444--444-|
D|-22--222--222--222--222--222------------222--222--222--222--222--222-----------|
A|------------------------------222--222--000--000--000--000--000--000--222--222-|
D|-------------------------------------------------------------------------------|

Guitar 2
e|-------------------------------------------------------------------------------|
B|-------------------------------------------------------------------------------|
G|-----(silence)--------------------------999--999--999--999--999--999--777--777-|
D|-------------------------------------------------------------------------------|
A|----------------------------------------777--777--777--777--777--777--555--555-|
D|-------------------------------------------------------------------------------|

OR combine them together like this if you want:
e|------------------------------------------------------------000--000-----------|
B|--------------------222--222------------555--555--555--555--222--222--333--333-|
G|-22--222--222--222--222--222--444--444--222--222--222--222--222--222--444--444-|
D|-22--222--222--222--222--222------------222--222--222--222--222--222--000--000-|
A|------------------------------222--222--000--000--000--000--000--000--222--222-|
D|-------------------------------------------------------------------------------|

Verse cont'd ("So go on say..."):

Guitar 1
e|----------------------------------------------------------------------------|
B|------------------------2--2--2--22-2--2--2222------------------------------|
G|-2--2--2--22-1--1--1111-2--2--2--22-1--1--1111---------7~-------------------|
D|-2--2--2--22-2--2--2222-2--2--2--22-2--2--2222-4~--2~--7~------4~--2~--5~---|
A|-0--0--0--00-0--0--0000-0--0--0--00-0--0--0000-4~--2~--5~------4~--2~--5~---|
D|-----------------------------------------------4~--2~----------4~--2~--5~---|

Guitar 2 (Starts at the F# chord - 244xxx)
e|--------------------0---2---0--------------------------------|
B|-----------0------3---3---3---3-----------2----------------.-| This isn't completely
G|-----2------------------------------2---------4~---4b5r~-2-4-| accurate, but it works
D|---4---4-2---2-0~-----------------4---4-2---2----------------| with the song
A|-4------------------------------4----------------------------|
D|-------------------------------------------------------------|

Chorus 1 (both guitars):
e|----------5---------------------------------------|
B|-10-------x-------3------8------3-----------------| 
G|----------7-------4-------------4-----------------| 
D|-7--------7--x16--4--x8--5------4--x8--2~22-5~55~-| 
A|-7---x16--5-------2------5--x8--2------2~22-5~55~-|
D|-7-----------------------5-------------2~22-5~55~-|

Repeat:
Intro 4x
Verse
Verse cont'd

Chorus (both guitars):
e|----------5---------------------------------------|
B|-10-------x-------3------8------3-----------------|
G|----------7-------4-------------4------7~77-9~99~-|
D|-7--------7--x16--4--x8--5------4--x8--7~77-9~99~-|
A|-7---x16--5-------2------5--x8--2------5~55-7~77~-|
D|-7-----------------------5------------------------|

Bridge:                           To do the slide below (3\2), use your 4th finger. Toplay the chord after
                                      that place your index finger on A2 and keep your 4th finger on B2
Guitar 1                                                                   
e|--------------------|     |---------------------------2~-----0~-----0-----0~---2~-----------| 
B|--------------------|     |---------------------------2h3~---3~-------3\2-2~---2h3~---3~----|
G|--------5-----------| 2x  |-7------10-----12----------2~-----2~---2-------2~---2~-----2~----| 
D|-3--x16-5--x8-5-----|     |-7--x16-10--x8-12--x8-------------------------------0~-----0~----| 
A|-3------3-----5--x8-|     |-5-------8-----10-----0~~~~~~~~~~~~~~~~~~~~~~~-0~---0~-----0~----|
D|-3------------5-----|     |----------------------------------------------------0~-----------| 
                                                                    upstroke^
Guitar 2 (not 100% accurate, hard to hear)
e||-------3~----|------3~-----||------5~----|--------8~----------------|
B||o----6----6~-|-0~------0~-o||------------|--------------------8~----| Stop at the ringing out
G||--5~---------|----5--------||----7----7~-|-----10----10~----7----7~-| open A string note seen
D||-------------|-------------||-7~---------|-10~-----------9~---------| above
A||o------------|------------o||------------|--------------------------|
D||------7x-----|-------------||-----2x-----|--------------------------|

Break:

Guitar 1
e|---0-----0~---0~----------5-----0~---2~----------------------|
B|-----3\2-2~---3~---3~---3---3p2-2~---2h3~--------------------|
G|-2-------2~---2~---2~-----------2~---2~----------------------|
D|-------------------0~----------------0~-------------55555555-|
A|---------0~--------0~-----------0~---0~---------555555555555-|
D|-------------------------------------0~-----5555555555555555-|
                                              ******* palm mute less & less
Guitar 2
e|---------------------------------------------------|
B|----------------7-------------7-----8--------------|
G|---------6--x16-6--x16-6--x16-6--x8-7--x8----------|
D|---------------------------------------------------|
A|---------------------------------------------------|
D|---------------------------------------------------|
           *      *      *      *     * palm mute less & less
Chorus 3 (both guitars):
e|--------------------------------------------------------------------|
B|------------------.------------3~3~333-----------3~3~333------------|
G|---.---7~777777-4~4------------4~4~444-----------4~4~444------------|
D|-7~7---7~777777-4~4---5~555555-4~4~444-5~5~55555-4~4~444-2~22-5~55~-|
A|-7~7---5~555555-2~2---5~555555-2~2~222-5~5~55555-2~2~222-2~22-5~55~-|
D|-7~7---0~000000-------5~555555---------5~5~55555---------2~22-5~55~-|

Repeat:
Chorus 1
Intro 4x

End on (both guitars):
e|---------------------------------------------------|
B|---------------------------------------------------|
G|-2~------------------------------------------------|
D|-2~------------------------------------------------|
A|-0~------------------------------------------------|
D|---------------------------------------------------|            
Submit corrections


        Been There Done That lessons Hard to play? Try these video lessons and learn fast Been There Done That lessons
        
↑ Back to top | Tablatures and chords for acoustic guitar and electric guitar, ukulele, drums are parodies/interpretations of the original songs. You may use it for private study, scholarship, research or language learning purposes only