Home » H » Hayden »

Hayden - Assignment In Space With Rip Foster Tabs

Artists:  A B C D E F G H I J K L M N O P Q R S T U V W X Y Z # 

Assignment In Space With Rip Foster Tabs

(ver. 1) Click to play this song!
Hayden
 Rating:
4/5 (4 votes)
                #



>Artist: Hayden
>Song: Assignment in space with Rip Foster

Here's an interesting little tune:

First, tune down a full step.  Then, tune your low E ( which is now a D)
down to an F ( I think).  The way I tell is to go to the fourteenth fret;
it should be the same as the next string which is now a G.  Your next
step is to lower the high E sting(which is also now a D) down to a C.  I
hope you're following me.  It isn't that complicated if you actually sit
down and do it.  It should look like this:

C|--------------------0------0-------------------|
A|--------------------0------0-------------------|
F|-----------------7--0------0-------------------|
C|-------------------------7-0-------------------|
G|------5--------------------------5--5>7-5------|
F|------0----------------------------------------|
repeat ('>' means that it's a hammer-on)

The "chorus" goes a little like this:

C|-------------------------------------------|
A|--------5----------0-----------------------|
F|--------5----------0-----------------------|
C|--------5----------0-----------------------|
G|--------7----------2-----------------------|
F|--------5----------0-----------------------|

And at the end of the chorus, you may want to throw in a slide on the
low F up to the 12th fret.

At the end, Hayden mellows out a little, and it goes like this:

C|-------------0------0---------------|
A|-------------0------0---------------|
F|----------7--0------0---------------|
C|-----------------7--0---------------|
G|-----5-------------------5--5>7--5--|
F|------------------------------------|

You may be thinking, "What a mess."  But there are some good things here.
First off, i didn't screw up any lyrics.  Second, Hayden himself said in
an interview that he doesn't remember how to play this, so he can't
correct me.  If I've just confused you here, please write me and I'll try
to make more sense of it. If you want, you can keep your guitar in
standard tuning, and just tune down the two E strings.  Remember, the low
6 string should be equal to the 5 string at the 14th fret, and the high 1
string should be the same as the high 2 string on the 3rd fret.  That's
how I tune it. I hope that doesn't make things even more confusing.
Anyway, have fun with it.
            
Submit corrections

↑ Back to top | Tablatures and chords for acoustic guitar and electric guitar, ukulele, drums are parodies/interpretations of the original songs. You may use it for private study, scholarship, research or language learning purposes only