» » »

Outro Tabs - Hatebreed

Artists:  A B C D E F G H I J K L M N O P Q R S T U V W X Y Z # 

Outro Tabs

(ver. 1) Click to play this song!
4/5 (4 votes)
    Outro lessons Tabs too difficult? Try these video lessons and learn fast

Tuning C,G,C,F,A,D

Listen to the song for the rhythm

The song starts after a little riff of drums……

   Riff: X 3 times 
D |------------------------|------------------------|------------------------|
A |------------------------|------------------------|------------------------|
F |------------------------|------------------------|------------------------|
C |--4-1--1-1-1--0--3-1-1--|--4-1--1-1-1--0--3-1-1--|--4-1--1-1-1--0--3-1-1--|
G |--4-1--1-1-1--0--3-1-1--|--4-1--1-1-1--0--3-1-1--|--4-1--1-1-1--0--3-1-1--|
C |--4-1--1-1-1--0--3-1-1--|--4-1--1-1-1--0--3-1-1--|--4-1--1-1-1--0--3-1-1--|

D |---------------------------||
A |---------------------------||
F |---------------------------||
C |--4-1--1-1-1--5-4-1-4-3-1--||
G |--4-1--1-1-1--5-4-1-4-3-1--||
C |--4-1--1-1-1--5-4-1-4-3-1--||

That’s all. It’s quite correct, have a good fun!!!!
Submit corrections

↑ Back to top | Tablatures and chords for acoustic guitar and electric guitar, ukulele, drums are parodies/interpretations of the original songs. You may use it for private study, scholarship, research or language learning purposes only