» » »

Hatebreed - In Ashes They Shall Reap Bass

Artists:  A B C D E F G H I J K L M N O P Q R S T U V W X Y Z # 

In Ashes They Shall Reap Bass

(ver. 1) Click to play this song!
Hatebreed
 Rating:
4/5 (4 votes)


 In Ashes They Shall Reap lessons Tabs too difficult? Try these video lessons and learn fast
 
                           Hatebreed - In Ashes They Shall Reap
                     Hatebreed
Alright, rough draft of the first bass tab of this song.
Hope it's good, and please, if you have any corrections, let me know so I can make
the tab better for everyone.
Tuning, Drop B/ B F# B E

Intro ( Bass comes in after singing starts)
Born to bleed...Fighting to succeed..Built to endore what this world throws at me.
        (Bass mostly follows drums at first)
E------------------------------------------------|
B------------------------------------------------|  Repeat.
F#-----------------------------------------------|
B--///-0------0--0---4--1---0----0-0----0---4--1-|


Guitar comes in.
Riff 1
E------------------------------------------------|
B------------------------------------------------|
F#-----------------------------------------------|
B------0------0--0---4--1---0----0-0----0---4--1-|


Riff 2 You...
E------------------------------------------------------------------|
B--------------------------------------------------------  Repeat--| x2
F#----------5----------------------------5------------8-7----------|
B--0-0-0-0-----8--7--3---6-5----0-0-0-0-----8--7--3----------------|

Back to Riff 1 x4
Repeat Riff 2 x2


Riff 3     Ashes..
E-----------------------------------------|
B-----------------------------------------| x4
F#----------------------------------------|
B--0-0-0--0-0-0-0-0-0--0-0-0-0--0-0--4--1-|


Riff 4 All my sorrows....
E---------------------------------|
B---------------------------------| x3
F#--------------------------------|
B-8-8-8---5--5--5-5--7-7-7-7--7-7-|

Riff 5 Those who...
E---------------------------------|
B---------------------------------|
F#--------------------------------|
B--8-8-8--5--5--5-5--0------------|

Riff 1 x1
Riff 5 x1

That's it. Really easy song, shouldn't be hard getting the rhythm down.
            
Submit corrections



        In Ashes They Shall Reap lessons Hard to play? Try these video lessons and learn fast In Ashes They Shall Reap lessons
        
↑ Back to top | Tablatures and chords for acoustic guitar and electric guitar, ukulele, drums are parodies/interpretations of the original songs. You may use it for private study, scholarship, research or language learning purposes only