» » »

Harper Ben - Forgiven Tabs

Artists:  A B C D E F G H I J K L M N O P Q R S T U V W X Y Z # 

Forgiven Tabs

(ver. 1) Click to play this song!
Harper Ben
 Rating:
4/5 (4 votes)


 Forgiven lessons Tabs too difficult? Try these video lessons and learn fast
 
                I love this song. I think the real way to play it is to fingerpick it, 
but what i do is just strum the notes and mute everystring that is not 
being played. It sounds good either way.


E|-------------------------------
B|-------------------------------
G|-------------------------------
D|-----6-6-666-7-7p6-------------
A|-7h9--------------9p7-9p7-7-777
E|-0-0-0-0-000-0-0-00-0-0-0-0-000

play that 3 times and then go

E|------------------
B|------------------
G|------------------
D|---12---7---------
A|---12---7--7-7-777
E|-5/10---5--0-0-000
  {--------}
   with dist.

play that a few times till the chorus comes around. Play this with a 
dist.

E|-----------------------------------------------------------
B|-----------------------------------------------------------
G|-------9------------9-7-----7--------2p1h2p1----2p1h2p1----
D|12--7--9---------7-9---9-7h9-12--7-2--------4-2--------4-0-
A|12--7--7------7-9------------12--7-2----------2----------0-
E|10--5-----7-10---------------10--5-0-----------------------

E|-----------------------------------------------------------
B|-----------------------------------------------------------
G|-2p1h2p1----2p1h2p1----2p1h2p1----2p1h2p1-----2p1h2p1------
D|--------4----------4----------4-2--------4-0---------4-----
A|----------4----------3----------2----------0-----------4---
E|----------4----------3---------------------------------4---

E|---------------
B|---------------
G|-2p1h2p1-------
D|--------4------
A|----------3-3/5
E|----------3-3/5


Reapeat all the above. 

This is the solo break. Im not going to tab out the lead guitar, cause
i dont have the time to do it note for note. just play some crazy wha
solo in an E minor penatonic. This however is the rythm guitar during
the solo. Play it 4 times With Dist.

E|------------------------------------------------------------
B|------------------------------------------------------------
G|------------------------------------------------------------
D|------------------------------------------------------------
A|-----5/7-5/7-----5/7-----5/7-5/7-----5/7-----1/3-1/3-----1/3
E|-0-0-5/7-5/7-0-0-5/7-0-0-5/7-5/7-0-0-5/7-0-0-1/3-1/3-0-0-1/3

E|---------------------
B|---------------------
G|---------------------
D|---------------------
A|-----3/5-3/5-----3/5-
E|-0-0-3/5-3/5-0-0-3/5-


After the solo play another verse and keep doing the chorus until the 
song ends. 
            
Submit corrections



        Forgiven lessons Hard to play? Try these video lessons and learn fast Forgiven lessons
        
↑ Back to top | Tablatures and chords for acoustic guitar and electric guitar, ukulele, drums are parodies/interpretations of the original songs. You may use it for private study, scholarship, research or language learning purposes only