» » »

Hard-Fi - Suburban Knights Tabs

Artists:  A B C D E F G H I J K L M N O P Q R S T U V W X Y Z # 

Suburban Knights Tabs

(ver. 1) Click to play this song!
Hard-Fi
 Rating:
4.6/5 (9 votes)
                Hard-Fi - Suburban Knights


Tuning: Standard

e:--------------------------------|
b:----9h11p9--7--9----------------|
g:---------------------8----------|
d:--------------------------------|
a:--------------------------------|
E:--------------------------------|

e:--------------------------------|
b:----9h11p9--7--7h9p7------------|
g:---------------------8----------|
d:--------------------------------|
a:--------------------------------|
E:--------------------------------|

e:--------------------------------|
b:----9-h-11-p-9--7--9------------|
g:---------------------8----------|
d:--------------------------------|
a:--------------------------------|
E:--------------------------------|

e:--------------------------------|
b:----------5--7-7p5--------------|
g:----8--8------------8-----------|
d:--------------------------------|
a:--------------------------------|
E:--------------------------------|


I think this is about right.
Feel free to comment.
Tom
            
Submit corrections

↑ Back to top | Tablatures and chords for acoustic guitar and electric guitar, ukulele, drums are parodies/interpretations of the original songs. You may use it for private study, scholarship, research or language learning purposes only