» » »

Hanoi Rocks - Village Girl Bass

Artists:  A B C D E F G H I J K L M N O P Q R S T U V W X Y Z # 

Village Girl Bass

(ver. 1) Click to play this song!
Hanoi Rocks
 Rating:
4.2/5 (30 votes)

 Village Girl lessons Tabs too difficult? Try these video lessons and learn fast
 
                [Verse, Solo, Outro]

G|----------------4p-2------------------------------|
D|--------2------------4--2-------------------------|
A|--2---2----2-----------------------------------0--|
E|-----------------------------3----3--2------2-----|

[Chorus]

G|--------------------------------------------------|
D|--------------------------------------------------|
A|--5---------------4h5/7-----7-----------5---------|
E|---------5---------------------7----5-7----7------|

[Post-chorus]

G|--------------------------------------7/9---------|
D|--------------------------------------------------|
A|------------------5/7-----------------------------|
E|--7----7--5----7----------------------------------|            
Submit corrections


        Village Girl lessons Hard to play? Try these video lessons and learn fast Village Girl lessons
        
↑ Back to top | Tablatures and chords for acoustic guitar and electric guitar, ukulele, drums are parodies/interpretations of the original songs. You may use it for private study, scholarship, research or language learning purposes only