» » »

Hanoi Rocks - Up Around The Bend Bass

Artists:  A B C D E F G H I J K L M N O P Q R S T U V W X Y Z # 

Up Around The Bend Bass

(ver. 2) Click to play this song!
Hanoi Rocks
 Rating:
4/5 (4 votes)


 Up Around The Bend lessons Tabs too difficult? Try these video lessons and learn fast
 
                ----------------------------------------------------------------------------------
                         Up Around The Bend - Hanoi Rocks
----------------------------------------------------------------------------------



Tuning: Standard

Intro
G|--------------------------------------------------------------------|
D|--------------------------------------------------------------------|
A|--10\3---------------------------------------------3----------------|
E|--------------------------------10\3--------------------------------|

G|--------------------------------------------------------------------|
D|--------------------------------------------------------------------|
A|---3-3-3-3-3-3-3-3-3-3-3-3-3-3-3-2-------------0-2-3-3-3-3-3-3-3-3--|
E|-----------------------------------3-3-3-3-3-3----------------------|

Verse 1
G|----------------------------------------------------------------------|
D|o--------------------------------------------------------------------o|
A|o--3-0-1-3-3-0-1-3-3-0-1-3-3-0-1-3-------------------------3---3-3---o|
E|-----------------------------------3-0-1-3-3-0-1-3-3---0--------------|

Chorus
G|-------------------------------------------------------------------------------|
D|-------------------------------------------------------------------------------|
A|-----2h3-3---------------------------2h3-3-------------------------------------|
E|-1-1-------3---0-1-3-3-0-1-3-3---1-1-------3---3-3-3-3-3-3-3-3-3-3-3-3-3-3-3-3-|

Verse 2
G|----------------------------------------------------------------------|
D|o--------------------------------------------------------------------o|
A|o--3-0-1-3-3-0-1-3-3-0-1-3-3-0-1-3-------------------------3---3-3---o|
E|-----------------------------------3-0-1-3-3-0-1-3-3---0--------------|

Chorus
G|-------------------------------------------------------------------------------|
D|-------------------------------------------------------------------------------|
A|-----2h3-3-------------------------2h3-3---------------------------------------|
E|-1-1-------3---0-1-3-3-0-1-3-3-1-1-------3---3-3-3-3-3-3-3-3-3-3-3-10-10-10-10-|

G|----------------------------------------------------------------------|
D|----------------------------------------------------------------------|
A|--10\3-----------------------------------------------3----------------|
E|----------------------------------10\3--------------------------------|

G|----------------------------------------------------------------------|
D|o--------------------------------------------------------------------o|
A|o--3-3-3-3-3-3-3-3-3-3-3-3-3-3-3-2-------------0-2-3-3-3-3-3-3-3-3---o|
E|-----------------------------------3-3-3-3-3-3------------------------|

Verse 3
G|----------------------------------------------------------------------|
D|o--------------------------------------------------------------------o|
A|o--5-0-2-4-5-0-2-4-5-0-2-4-5-0-2-4-------------------------5---5-5---o|
E|-----------------------------------5-0-2-4-5-0-2-4-5---2--------------|

Chorus
G|------------------------------------------------------------------------|
D|------------------------------------------------------------------------|
A|-------4h5-5------------------------4h5-5-------------------------------|
E|---3-3-------5-0-2-4-5-0-2-4----3-3-------5-5-5-5-5-5-5-5-5-5-5---------|

G|----------------------------------------------------------------------|
D|o--------------------------------------------------------------------o|
A|o--5-0-2-4-5-0-2-4-5-0-2-4-5-0-2-4-------------------------5---5-5---o|
E|-----------------------------------5-0-2-4-5-0-2-4-5---2--------------|

Bridge                      Repeat x7
G|-----------------------------------|
D|o---------------------------------o|
A|o------2h3-3----------------------o|
E|---1-1-------3---0-1-3-3-0-1-3-3---|

G|---------------------------------------------------|
D|---------------------------------------------------|
A|-------2h3-3---------------------------------------|
E|---1-1-------3---3-3-3-3-3-3-3-3-5-5-5-5-5-5-5-5---|

Outro                                                   Repeat until end
G|----------------------------------------------------------------------|
D|o--------------------------------------------------------------------o|
A|o--5-0-2-4-5-0-2-4-5-0-2-4-5-0-2-4-------------------------5---5-5---o|
E|-----------------------------------5-0-2-4-5-0-2-4-5---2--------------|



| /  slide up
| \  slide down
| h  hammer-on
| p  pull-off
| ~  vibrato
| +  harmonic
| x  Mute note
===============================================================================

Please rate or comment..........
            
Submit corrections



        Up Around The Bend lessons Hard to play? Try these video lessons and learn fast Up Around The Bend lessons
        
↑ Back to top | Tablatures and chords for acoustic guitar and electric guitar, ukulele, drums are parodies/interpretations of the original songs. You may use it for private study, scholarship, research or language learning purposes only