» » »

Hanoi Rocks - Motorvatin' Tabs

Artists:  A B C D E F G H I J K L M N O P Q R S T U V W X Y Z # 

Motorvatin' Tabs

(ver. 1) Click to play this song!
Hanoi Rocks
 Rating:
4/5 (4 votes)
                Hanoi Rocks - Motorvatin


Intro:

Bass
|-----------------------------------|
|------------0-0-0---------0--------|
|--------2-4-------4-2-------4-2----| 
|--3-3-3---------------3-3-------3-3|

Guitar
|-----------------------------------|
|-----------------------------------|
|-----------------------------------|
|------------0-0-0---------0--------|
|--------2-4-------4-2-------4-2----|
|--3-3-3---------------3-3-------3-3|
            
Submit corrections

↑ Back to top | Tablatures and chords for acoustic guitar and electric guitar, ukulele, drums are parodies/interpretations of the original songs. You may use it for private study, scholarship, research or language learning purposes only