Home » H » Hank Williams »

Hank Williams - Move It On Over Tabs

Artists:  A B C D E F G H I J K L M N O P Q R S T U V W X Y Z # 

Move It On Over Tabs

(ver. 1) Click to play this song!
Hank Williams
Move It On Over

Hank Williams

Solo:

e-------12-14/16-12----12---------------------------------------------
b-12-14-------------14----14--14---12-14-12-14-12---------------------
g---------------------------------------------------------------------
d---------------------------------------------------------------------
a---------------------------------------------------------------------
E---------------------------------------------------------------------

e---------------------------------------------------------------------
b-------------------12-13-14------------------------------------------
g----------11-12-13----------13-12-11---------------------------------
d-12-13-14----------------------------14-13-12-------------14---------
a----------------------------------------------14-13-12-11------------
E---------------------------------------------------------------------

e-------------------------------------------4--4--7-7-4----12--11-----
b-----5---5-8-7-5---5-7-8-5-7-5-----------5---------------------------
g-4/6---6---------6-------------6-4---4-6-----------------------------
d-----------------------------------6---------------------------------
a---------------------------------------------------------------------
E---------------------------------------------------------------------

e-12-14-11-12----11---------------------------------------------------
b-------------14----12-13-14----14------------------------13--14--14--
g----------------------------12----12-11h12p11p9------9---11--12--12--
d------------------------------------------------11-9-----------------
a---------------------------------------------------------------------
E---------------------------------------------------------------------

e-------------------------------
b-------------------------------
g-9---------9-------------------
d----11--9-----9--11------------
a---------------------10--------
E-------------------------------

Also a good alternate picking exercise!
            
Submit corrections

↑ Back to top | Tablatures and chords for acoustic guitar and electric guitar, ukulele, drums are parodies/interpretations of the original songs. You may use it for private study, scholarship, research or language learning purposes only