Home » H » Hank Williams »

Hank Williams - Lost Highway Tabs

Artists:  A B C D E F G H I J K L M N O P Q R S T U V W X Y Z # 

Lost Highway Tabs

(ver. 1) Click to play this song!
Hank Williams
This is my first time to ever make a tab...but Im pretty sure its right.
I dont know about all the timing but you can listen to it and figure it out



E---------------12b-10---------------------------------12b--
B-----3-3/7~~~~--------12-10----------10~----10-12-10-------
G-2-4------------------------7-7-7/11-----------------------
D-----------------------------------------------------------
A-----------------------------------------------------------
E-----------------------------------------------------------

E10------------------------------------------10-10---10--10~
B--12-10---------------12br-12--------------------12--------
G--------11-9-11-14-11---------14-11-14~~-------------------
D-----------------------------------------------------------
A-----------------------------------------------------------
E-----------------------------------------------------------

E-12-10-------10-10-----------------------------------
B-------12-12-------------3-3/7~~~~--77-66-55-3~-----3
G---------------------2-4------------------------2-/4-
D-----------------------------------------------------
A-----------------------------------------------------
E-----------------------------------------------------


Part of that is a fiddle solo... but if your playin by yourself thats pretty close.
            
Submit corrections

↑ Back to top | Tablatures and chords for acoustic guitar and electric guitar, ukulele, drums are parodies/interpretations of the original songs. You may use it for private study, scholarship, research or language learning purposes only