» » »

Hammerfall - Never Ever Tabs

Artists:  A B C D E F G H I J K L M N O P Q R S T U V W X Y Z # 

Never Ever Tabs

(ver. 1) Click to play this song!
Hammerfall
 Rating:
4/5 (4 votes)

 Never Ever lessons Tabs too difficult? Try these video lessons and learn fast
 
                Intro (first solo)
------------------------------------------14-16-16-14-14-12-14-9--------|
--16-16-14-12-16---16-16-14-12-17---17-17-------------------------------|
------------------------------------------------------------------------|
------------------------------------------------------------------------|
------------------------------------------------------------------------|
------------------------------------------------------------------------|


------------------------------------------18-19-19-19-19-16-18-14/16----|
--16-16-14-12-16---16-16-14-12-17---21-21-------------------------------|
------------------------------------------------------------------------|
------------------------------------------------------------------------|
------------------------------------------------------------------------|
------------------------------------------------------------------------|


CHORUS
------------------------------------------------------------------------|
------------------------------------------------------------------------|
-----4---------4-8------------------------------------------------------|
--6--4-4-2---4-4-8-8-6--------------------------------------------------|
--6--2-4-2---4-2-6-8-6--------------------------------------------------|
--4----2-0---6-----6-4--------------------------------------------------|


After second CHORUS
------------------------------------------------------------------------|
------------------------------------------------------------------------|
--------------------6---------------------------------------------------|
----------------2---6-9-9-6---8--9-----9---------11-----------------13--|
----------------2---4-9-9-6---8--9-----9---------11-----------------13--|
--7-0-0-0-6-0-0-2-----7-7-4---6--7-7-7-7-7-7-7-7-9--9-9-9-9-9-9-9-9-11--|


WITH THE FINAL SOLO
------------------------------------------------------------------------|
------------------------------------------------------------------------|
-----------11    ---8    ---6    ---------------------------------------|
--13    ---11 x9 ---8 x9 ---6 x9 ---------------------------------------|
--13 x9 ---9     ---6    ---4    ---------------------------------------|
--11    ----------------------------------------------------------------|


------------------------------------------------------------------------|
------------------------------------------------------------------------|
-----------11    ---8    ---6-------------------------------------------|
--13    ---11 x9 ---8 x9 ---6-------------------------------------------|
--13 x9 ---9     ---6    ---4-------------------------------------------|
--11    ----------------------------------------------------------------|
            
Submit corrections


        Never Ever lessons Hard to play? Try these video lessons and learn fast Never Ever lessons
        
↑ Back to top | Tablatures and chords for acoustic guitar and electric guitar, ukulele, drums are parodies/interpretations of the original songs. You may use it for private study, scholarship, research or language learning purposes only