» » »

Hammerfall - Bushido Tabs

Artists:  A B C D E F G H I J K L M N O P Q R S T U V W X Y Z # 

Bushido Tabs

(ver. 1) Click to play this song!
Hammerfall
 Rating:
4.4/5 (7 votes)

 Bushido  lessons Tabs too difficult? Try these video lessons and learn fast
 
                [Intro]

[Stave 1]

E|--8--5-----8--5-----8--5-----8--5-----7--5-----7--5-----7--5-----7--5-----|
B|--------5--------5--------5--------5--------5--------5--------5--------5--|
G|--------------------------------------------------------------------------|
D|--------------------------------------------------------------------------|
A|--------------------------------------------------------------------------|
E|--------------------------------------------------------------------------|


[Stave 2]

E|--6--3-----6--3-----6--3-----6--3-----5--3-----5--3-----5--3-----5--3-----|
B|--------3--------3--------3--------3--------3--------3--------3--------3--|
G|--------------------------------------------------------------------------|
D|--------------------------------------------------------------------------|
A|--------------------------------------------------------------------------|
E|--------------------------------------------------------------------------|


[Stave 3]

E|-----------------------------------------------------------------------------|
B|-----------------------------------------------------------------------------|
G|-----------------------------------------------------------------------------|
D|-----------------------------------------------------------------------------|
A|--7--7--7--7--7--7--7--5--5--5--5--5--5--5--5--5--5--5--5--3--3--3--3--3--3--|
E|-----------------------------------------------------------------------------|


[Main]

E|------------------------------|
B|--11--13--14--13--11--14--13--|
G|------------------------------|
D|------------------------------|
A|------------------------------|
E|------------------------------|


[Stave 2]

E|----------------------------|
B|--9--11--13--11--9--13--11--|
G|----------------------------|
D|----------------------------|
A|----------------------------|
E|----------------------------|


[Stave 3]

E|---------------------------------------------------------|
B|--11--13--14--13--11--14--13--11--9--11--13--14--13--11--|
G|---------------------------------------------------------|
D|---------------------------------------------------------|
A|---------------------------------------------------------|
E|---------------------------------------------------------|            
Submit corrections


        Bushido  lessons Hard to play? Try these video lessons and learn fast Bushido  lessons
        
↑ Back to top | Tablatures and chords for acoustic guitar and electric guitar, ukulele, drums are parodies/interpretations of the original songs. You may use it for private study, scholarship, research or language learning purposes only