Home » H » Half Moon Run »

Half Moon Run - Trust Tabs

Artists:  A B C D E F G H I J K L M N O P Q R S T U V W X Y Z # 

Trust Tabs

(ver. 1) Click to play this song!
Half Moon Run
 Rating:
2.9/5 (29 votes)
                CHORUS 1 (1:00)

e|----------------|----------------| 4 times
B|13----11--13--11|--------11----13|
G|----------------|----12----------|
D|----------------|----------------|
A|----------------|----------------|
E|----------------|----------------|

e|13----11--13--11|--------11----13| 4 times
B|13----11--13--11|----13--11----13|
G|----------------|----12----------|
D|----------------|----------------|
A|----------------|----------------|
E|----------------|----------------|
            
Submit corrections

↑ Back to top | Tablatures and chords for acoustic guitar and electric guitar, ukulele, drums are parodies/interpretations of the original songs. You may use it for private study, scholarship, research or language learning purposes only