Home » H » Half Moon Run »

Half Moon Run - Jello On My Mind Tabs

Artists:  A B C D E F G H I J K L M N O P Q R S T U V W X Y Z # 

Jello On My Mind Tabs

(ver. 1) Click to play this song!
Half Moon Run
 Rating:
4.3/5 (15 votes)
                [Intro]
   E               E6              EM7             E6
e|-----------------------------------------------------------------|
B|-----------------------------------------------------------------|
G|-----------------------------------------------------------------|
D|-----------------------------------------------------------------|
A|-2---2---x---2---4---4---x---4-/-6---6---x---6---4---4---x---4---|
E|-0---0---x---0---0---0---x---0---0---0---x---0---0---0---x---0---|
 
   E               E6              EM7             E6
e|-----------------------------------------------------------------|
B|-----------------------------------------------------------------|
G|-----------------------------------------------------------------|
D|-----------------------------------------------------------------|
A|-x---2---x---2---4---4---x---4-/-6---6---x---6---4---4---x---4---|
E|-x---0---x---0---0---0---x---0---0---0---x---0---0---0---x---0---|
 
   E               E6              EM7             E6
e|-----------------------------------------------------------------|
B|-----------------------------------------------------------------|
G|-----------------------------------------------------------------|
D|-----------------------------------------------------------------|
A|-x---2---x---2---4---4---x---4-/-6---6---x---6---4---4---x---4---|
E|-x---0---x---0---0---0---x---0---0---0---x---0---0---0---x---0---|
 
   E               E6              EM7             E6
e|-----------------------------------------------------------------|
B|-----------------------------------------------------------------|
G|-----------------------------------------------------------------|
D|-------------------------------------4---------------------------|
A|-x---2---x---2---4---4---x---4-/-6-------6---4---x---4---x---4---|
E|-x---0---x---0---0---0---x---0-------------------x---0---x---0---|
 
 
[Verse 1]
   E               E6              EM7             E6
e|-----------------------------------------------------------------|
B|-----------------------------------------------------------------|
G|-----------------------------------------------------------------|
D|-----------------------------------------------------------------|
A|-x---2---x---2---4---4---x---4-/-6---6---x---6---4---4---x---4---|
E|-x---0---x---0---0---0---x---0---0---0---x---0---0---0---x---0---|
           Apple   berry   baby,   cherry      lime
 
   E               E6              EM7             E6
e|-----------------------------------------------------------------|
B|-----------------------------------------------------------------|
G|-----------------------------------------------------------------|
D|-----------------------------------------------------------------|
A|-x---2---x---2---4---4---x---4-/-6---6---x---6---4---4---x---4---|
E|-x---0---x---0---0---0---x---0---0---0---x---0---0---0---x---0---|
       I  want to eat you, baby,   all of the time 
 
       G#m                         F#/A
e|-----------------------------------------------------------------|
B|-----------------------------------------------------------------|
G|-----------------------------------------------------------------|
D|-----------------------------------------------------------------|
A|-x---6---x---6---6---6---6---6---4---4---4---4---4---4---4---4\--|
E|-x---4---x---4---4---4---4---4---6---6---6---6---6---6---6---6\--|
           More    sugar       and I’ll                be    fine
 
[Chorus]
   E               E6              EM7             E6
e|-----------------------------------------------------------------|
B|-----------------------------------------------------------------|
G|-----------------------------------------------------------------|
D|-----------------------------------------------------------------|
A|-----x---2---x---4---4---x---4-/-6---6---x---6---4---4---x---4---|
E|-----x---0---x---0---0---x---0---0---0---x---0---0---0---x---0---|
                                       J-  j-  j-  jello   on  my
 
   E               E6              EM7         E6     E/G#
e|------------------------------------------------------------------------------|
B|----------------------------------------------------9--------9\---------------|
G|----------------------------------------------------9--------9\---------------|
D|------------------------------------4---------------9--------9\---------------|
A|-x--2---x---2---4---4---x---4-/-6-------6---4---x--11---x---11\---------------|
E|-x--0---x---0---0---0---x---0-------------------x-------x---------------------|
   mind
 
[Verse 2]
   E               E6              EM7             E6
e|-----------------------------------------------------------------|
B|-----------------------------------------------------------------|
G|-----------------------------------------------------------------|
D|-----------------------------------------------------------------|
A|-----x---2---x---4---4---x---4-/-6---6---x---6---4---4---x---4---|
E|-----x---0---x---0---0---x---0---0---0---x---0---0---0---x---0---|
          I’d been waiting just to pick    you up
 
   E               E6              EM7             E6
e|-----------------------------------------------------------------|
B|-----------------------------------------------------------------|
G|-----------------------------------------------------------------|
D|-----------------------------------------------------------------|
A|-x---2---x---2---4---4---x---4-/-6---6---x---6---4---4---x---4---|
E|-x---0---x---0---0---0---x---0---0---0---x---0---0---0---x---0---|
       It  only   cost me like a   couple  of bucks
 
   E               E6              EM7             E6
e|-----------------------------------------------------------------|
B|-----------------------------------------------------------------|
G|-----------------------------------------------------------------|
D|-----------------------------------------------------------------|
A|-x---2---x---2---4---4---x---4-/-6---6---x---6---4---4---x---4---|
E|-x---0---x---0---0---0---x---0---0---0---x---0---0---0---x---0---|
     Clear as my conscience, you’re sweet as can be
 
   E               E6              EM7             E6
e|-----------------------------------------------------------------|
B|-----------------------------------------------------------------|
G|-----------------------------------------------------------------|
D|-----------------------------------------------------------------|
A|-x---2---x---2---4---4---x---4-/-6---6---x---6---4---4---x---4---|
E|-x---0---x---0---0---0---x---0---0---0---x---0---0---0---x---0---|
      What can I  do  to  get you  inside  of me?     There’s
 
       G#m                         F#/A
e|-----------------------------------------------------------------|
B|-----------------------------------------------------------------|
G|-----------------------------------------------------------------|
D|-----------------------------------------------------------------|
A|-x---6---x---6---6---6---6---6---4---4---4---4---4---4---4---4\--|
E|-x---4---x---4---4---4---4---4---6---6---6---6---6---6---6---6\--|
           no      pressure    to take                your   time
 
[Chorus]
   E               E6              EM7             E6
e|-----------------------------------------------------------------|
B|-----------------------------------------------------------------|
G|-----------------------------------------------------------------|
D|-----------------------------------------------------------------|
A|-----x---2---x---4---4---x---4-/-6---6---x---6---4---4---x---4---|
E|-----x---0---x---0---0---x---0---0---0---x---0---0---0---x---0---|
                                       J-  j-  j-  jello   on  my
 
   E               E6              EM7             E6
e|-----------------------------------------------------------------|
B|-----------------------------------------------------------------|
G|-----------------------------------------------------------------|
D|-----------------------------------------------------------------|
A|-----x---2---x---4---4---x---4-/-6---6---x---6---4---4---x---4---|
E|-----x---0---x---0---0---x---0---0---0---x---0---0---0---x---0---|
   mind
 
[Instrumental]
   E               E6              EM7             E6
e|---------4------/7---7----------/9---------/11-------9-------7---|
B|----------------/4---4----------/6----------/8-------6-------4---|
G|---------1-------------------------------------------------------|  x3
D|-----------------------------------------------------------------|
A|-x-----------x-----------x-----------------------x-------x-------|
E|-x---0-------x-----------x---0-----------0-------x-------x-------|
 
   E               E6              EM7             E6
e|---------4------/7---7----------/9---------/11-------9------12---------------|
B|----------------/4---4----------/6----------/8-------6-------9---------------|
G|---------1-------------------------------------------------------------------|
D|-----------------------------------------------------------------------------|
A|-x-----------x-----------x-----------------------x-------x-------------------|
E|-x---0-------x-----------x---0-----------0-------x-------x-------------------|
 
[Verse 3]
   E               E6              EM7             E6
e|-----------------------------------------------------------------|
B|-----------------------------------------------------------------|
G|-----------------------------------------------------------------|
D|-----------------------------------------------------------------|
A|-----x---2---x---4---4---x---4-/-6---6---x---6---4---4---x---4---|
E|-----x---0---x---0---0---x---0---0---0---x---0---0---0---x---0---|
       Why do  I leave you     alone   overnight?
 
   E               E6              EM7        *Slide down from 6 to 2, then up to 14 without picking*
e|-----------------------------------------------------------------|
B|-----------------------------------------------------------------|
G|-----------------------------------------------------------------|
D|-----------------------------------------------------------------|
A|-x---2---x---2---4---4---x---4-/-6---6---x---6\---(2)/---(14)----|
E|-x---0---x---0---0---0---x---0---0---0---x---0-------------------|
       Cuz in the morning I’m like Oh         yea!             Right!
 
       G#m                         F#/A
e|-----------------------------------------------------------------|
B|-----------------------------------------------------------------|
G|-----------------------------------------------------------------|
D|-----------------------------------------------------------------|
A|-x---6---x---6---6---6---6---6---4---4---4---4---4---4---4---4---|
E|-x---4---x---4---4---4---4---4---6---6---6---6---6---6---6---6---|
       And I       get you     to change               my     life
 
[Chorus]
   E               E6              EM7             E6
e|-----------------------------------------------------------------|
B|-----------------------------------------------------------------|
G|-----------------------------------------------------------------|
D|-----------------------------------------------------------------|
A|-----x---2---x---4---4---x---4-/-6---6---x---6---4---4---x---4---|
E|-----x---0---x---0---0---x---0---0---0---x---0---0---0---x---0---|
                                       J-  j-  j-  jello   on  my
 
   E               E6              EM7             E6
e|-----------------------------------------------------------------|
B|-----------------------------------------------------------------|
G|-----------------------------------------------------------------|
D|-----------------------------------------------------------------|
A|-----x---2---x---4---4---x---4-/-6---6---x---6---4---4---x---4---|
E|-----x---0---x---0---0---x---0---0---0---x---0---0---0---x---0---|
   mind                                J-  j-  j-  jello   on  my
 
[Bridge]
   C#                              G#m
   >           >           >   > > >           >           >   >
e|-----------------------------------------------------------------|
B|-6---6---6---6---6---6---6---6-6-4---4---4---4---4---4---4---4-4-|
G|-x---x---x---x---x---x---x---x-x-4---4---4---4---4---4---4---4-4-|
D|-6---6---6---6---6---6---6---6-6-6---6---6---6---6---6---6---6-6-|
A|-4---4---4---4---4---4---4---4-4-x---x---x---x---x---x---x---x-x-|
E|---------------------------------4---4---4---4---4---4---4---4-4-|
   mind       Jump over   the edge,            just   give     in
 
   B                               F#m
   >           >           >   >   >           >           >   >
e|-----------------------------------------------------------------|
B|-4---4---4---4---4---4---4---4-4-2---2---2---2---2---2---2---2-2-|
G|-x---x---x---x---x---x---x---x-x-2---2---2---2---2---2---2---2-2-|
D|-4---4---4---4---4---4---4---4-4-4---4---4---4---4---4---4---4-4-|
A|-2---2---2---2---2---2---2---2-2-x---x---x---x---x---x---x---x-x-|
E|---------------------------------2---2---2---2---2---2---2---2-2-|
               I’m over    my  head,           swimming        in
 
   A                               E
   >           >           >   >   >           >           >   >   >
e|---------------------------------0---0---0---0---0---0---0---0-0-----------------|
B|-2---2---2---2---2---2---2---2-2-0---0---0---0---0---0---0---0-0-9---------------|
G|-2---2---2---2---2---2---2---2-2-1---1---1---1---1---1---1---1-1-9---------------|
D|-2---2---2---2---2---2---2---2-2-2---2---2---2---2---2---2---2-2-9---------------|
A|-0---0---0---0---0---0---0---0-0-2---2---2---2---2---2---2---2-2-7---------------|
E|---------------------------------0---0---0---0---0---0---0---0-0-----------------|
           And I’ve    more   than plenty                               jello on my 
 
[Chorus]
   E               E6              EM7             E6
e|-----------------------------------------------------------------|
B|-----------------------------------------------------------------|
G|-----------------------------------------------------------------|
D|-----------------------------------------------------------------|
A|-----x---2---x---4---4---x---4-/-6---6---x---6---4---4---x---4---|
E|-----x---0---x---0---0---x---0---0---0---x---0---0---0---x---0---|
  mind                                 J-  j-  j-  jello   on  my
 
   E               E6              EM7             E6
e|-----------------------------------------------------------------|
B|-----------------------------------------------------------------|
G|-----------------------------------------------------------------|
D|-----------------------------------------------------------------|
A|-x---2---x---2---4---4---x---4-/-6---6---x---6---4---4---x---4---|
E|-x---0---x---0---0---0---x---0---0---0---x---0---0---0---x---0---|
   mind                                            Jello   on  my
 
   E               E6              EM7             E6
e|-----------------------------------------------------------------|
B|-----------------------------------------------------------------|
G|-----------------------------------------------------------------|
D|-----------------------------------------------------------------|
A|-x---2---x---2---4---4---x---4-/-6---6---x---6---4---4---x---4---|
E|-x---0---x---0---0---0---x---0---0---0---x---0---0---0---x---0---|
  mind                                 J-  j-  j-  jello   on  my
 
   E               E6              EM7             E6
e|-----------------------------------------------------------------|
B|-----------------------------------------------------------------|
G|-----------------------------------------------------------------|
D|-----------------------------------------------------------------|
A|-x---2---x---2---4---4---x---4-/-6---6---x---6---4---4---x---4---|
E|-x---0---x---0---0---0---x---0---0---0---x---0---0---0---x---0---|
   mind                                        J-  jello   on  my
 
   E               E6              EM7             E6
e|-----------------------------------------------------------------|
B|-----------------------------------------------------------------|
G|-----------------------------------------------------------------|
D|-----------------------------------------------------------------|
A|-x---2---x---2---4---4---x---4-/-6---6---x---6---4---4---x---4---|
E|-x---0---x---0---0---0---x---0---0---0---x---0---0---0---x---0---|
           mind                                    Jello   on  my
 
   E               E6              EM7             E6
e|-----------------------------------------------------------------|
B|-----------------------------------------------------------------|
G|-----------------------------------------------------------------|
D|-----------------------------------------------------------------|
A|-x---2---x---2---4---4---x---4-/-6---6---x---6---4---4---x---4---|
E|-x---0---x---0---0---0---x---0---0---0---x---0---0---0---x---0---|
           mind                                    Jello   on  my
 
   E               E6              EM7             E6
e|-----------------------------------------------------------------|
B|-----------------------------------------------------------------|
G|-----------------------------------------------------------------|
D|-----------------------------------------------------------------|
A|-x---2---x---2---4---4---x---4-/-6---6---x---6---4---4---x---4---|
E|-x---0---x---0---0---0---x---0---0---0---x---0---0---0---x---0---|
           mind                        J-  j-  j-  jello   on  my 
 
   E               E6              EM7             E6
e|-----------------------------------------------------------------|
B|-----------------------------------------------------------------|
G|-----------------------------------------------------------------|
D|-----------------------------------------------------------------|
A|-x---2---x---2---4---4---x---4-/-6---6---x---6---4---4---x---4---|
E|-x---0---x---0---0---0---x---0---0---0---x---0---0---0---x---0---|
   mind                                            Jello   on  my 
 
   E               E6              EM7             E6
e|-----------------------------------------------------------------|
B|-----------------------------------------------------------------|
G|-----------------------------------------------------------------|
D|-----------------------------------------------------------------|
A|-x---2---x---2---4---4---x---4-/-6---6---x---6---4---4---x---4---|
E|-x---0---x---0---0---0---x---0---0---0---x---0---0---0---x---0---|
           mind                                    Jello       on
 
   E               E6              EM7             E6
e|-----------------------------------------------------------------|
B|-----------------------------------------------------------------|
G|-----------------------------------------------------------------|
D|-----------------------------------------------------------------|
A|-x---2---x---2---4---4---x---4-/-6---6---x---6---4---4---x---4---|
E|-x---0---x---0---0---0---x---0---0---0---x---0---0---0---x---0---|
   my      mind                        J-  j-  j-  jello   on  my
 
   E               E6              EM7             E6
e|-----------------------------------------------------------------|
B|-----------------------------------------------------------------|
G|-----------------------------------------------------------------|
D|-----------------------------------------------------------------|
A|-x---2---x---2---4---4---x---4-/-6---6---x---6---4---4---x---4---|
E|-x---0---x---0---0---0---x---0---0---0---x---0---0---0---x---0---|
   mind                                            
 
   E               E6              EM7             E6
e|-----------------------------------------------------------------|
B|-----------------------------------------------------------------|
G|-----------------------------------------------------------------|
D|-----------------------------------------------------------------|
A|-x---2---x---2---4---4---x---4-/-6---6---x---6---4---4---x---4---|
E|-x---0---x---0---0---0---x---0---0---0---x---0---0---0---x---0---|
 
   E               E6              EM7             E6
e|-----------------------------------------------------------------|
B|-----------------------------------------------------------------|
G|-----------------------------------------------------------------|
D|-----------------------------------------------------------------|
A|-x---2---x---2---4---4---x---4-/-6---6---x---6---4---4---x---4---|
E|-x---0---x---0---0---0---x---0---0---0---x---0---0---0---x---0---|
                                                   Jello   on  my
 
   E               E6              EM7             E6
e|-----------------------------------------------------------------|
B|-----------------------------------------------------------------|
G|-----------------------------------------------------------------|
D|-----------------------------------------------------------------|
A|-x---2---x---2---4---4---x---4-/-6---6---x---6---4---4---x---4---|
E|-x---0---x---0---0---0---x---0---0---0---x---0---0---0---x---0---|
           mind                        J-  j-  j-  jello   on  my
 
   E               E6              EM7             E6
e|-----------------------------------------------------------------|
B|-----------------------------------------------------------------|
G|-----------------------------------------------------------------|
D|-----------------------------------------------------------------|
A|-x---2---x---2---4---4---x---4-/-6---6---x---6---4---4---x---4---|
E|-x---0---x---0---0---0---x---0---0---0---x---0---0---0---x---0---|
   mind  
 
   E               E6              EM7             E6
e|-----------------------------------------------------------------|
B|-----------------------------------------------------------------|
G|-----------------------------------------------------------------|
D|-----------------------------------------------------------------|
A|-x---2---x---2---4---4---x---4-/-6---6---x---6---4---4---x---4---|
E|-x---0---x---0---0---0---x---0---0---0---x---0---0---0---x---0---|
 
   E               E6              EM7             E6
e|-----------------------------------------------------------------|
B|-----------------------------------------------------9-------9---|
G|-----------------------------------------------------9-------9---|
D|-----------------------------------------------------9-------9---|
A|-x---2---x---2---4---4---x---4-/-6---6---x---6---4---7---x---7---|
E|-x---0---x---0---0---0---x---0---0---0---x---0---0-------x-------|
            
Submit corrections

↑ Back to top | Tablatures and chords for acoustic guitar and electric guitar, ukulele, drums are parodies/interpretations of the original songs. You may use it for private study, scholarship, research or language learning purposes only