» » »

Haley Reinhart - Dont Know How To Love You Live Tabs

Artists:  A B C D E F G H I J K L M N O P Q R S T U V W X Y Z # 

Dont Know How To Love You Live Tabs

(ver. 1) Click to play this song!
Haley Reinhart
 Rating:
4.3/5 (12 votes)

 Dont Know How To Love You Live lessons Tabs too difficult? Try these video lessons and learn fast
 
                [Verse 1]
    D             Bm             D            Bm            D
e|-----------------------------------------------------------------------------|
B|-----7-------7-----7------7-------7------7-----7------7-------7--------------|
G|-----7-------7-----7------7-------7------7-----7------7-------7--------------|
D|-----7-------7-----x------x-------7------7-----x------x-------7--------------|
A|--5-----5-5--------------------5----5-5--------------------5----5h7s9p7--5h7-|
E|-------5--------7----7-7----5---------------7----7-7----5--------------------|

    G               Bb        C        (This part only plays in the first verse)
e|----------------------------------|---------------|
B|--x--2---x--2-----3--3--3---5--7--|---------------|
G|--0--0---x--0-----3--3--3---5--7--|---------------| 
D|--x--0---0--0-----3--3--3---5--7--|---------------|
A|--2--x---2--x--0--1-----1---3--5--|------5-7s9----|
E|--3------3------------------------|--5-7----------|


[Verse 2]

    D             Bm             D            Bm            D
e|-----------------------------------------------------------------------------|
B|-----7-------7-----7------7-------7------7-----7------7-------7--------------|
G|-----7-------7-----7------7-------7------7-----7------7-------7--------------|
D|-----7-------7-----x------x-------7------7-----x------x-------7--------------|
A|--5-----5-5--------------------5----5-5--------------------5----5h7s9p7--5h7-|
E|-------5--------7----7-7----5---------------7----7-7----5---------------------

    G               Bb        C        
e|----------------------------------|
B|--x--2---x--2-----3--3--3---5--7--|
G|--0--0---x--0-----3--3--3---5--7--|
D|--x--0---0--0-----3--3--3---5--7--|
A|--2--x---2--x--0--1-----1---3--5--|
E|--3------3------------------------|

[Pre-Chorus]
    Bm                           D
e|--------------------------------------------------------------|
B|---3---3--3--3--3--3--3--3-----7-7-7-7-7-7-7-7-7-7-7-7-7-7-7--|
G|---4---4--4--4--4--4--4--4-----7-7-7-7-7-7-7-7-7-7-7-7-7-7-7--|
D|---4---4--4--4--4--4--4--4-----7-7-7-7-7-7-7-7-7-7-7-7-7-7-7--|
A|---2-2---2--2--2--2--2--2---2--5-5-5-5-5-5-5-5-5-5-5-5-5-5-5--|
E|--------------------------------------------------------------|

     Bm                        A
e|--------------------------------------------------------------|
B|---3---3--3--3--3--3--3--3---2-2-2-2-2-2-2-2-2-2-2-2-2-2-2-2--|
G|---4---4--4--4--4--4--4--4---2-2-2-2-2-2-2-2-2-2-2-2-2-2-2-2--|
D|---4---4--4--4--4--4--4--4---2-2-2-2-2-2-2-2-2-2-2-2-2-2-2-2--|
A|---2-2---2--2--2--2--2--2----0-0-0-0-0-0-0-0-0-0-0-0-0-0-0-0--|
E|--------------------------------------------------------------|

[Chorus]
                     B          Gm        C    D                 D                Bm
e|----------------------------------------------------------------------------------------------------
B|-------------------7-----7------3--3---5----7--7-----------------7-----------------7----------------
G|-------------------7-----7------3--3---5----7--7-----------------7-----------------7----------------
D|-------------------x-----x------4--4---5----7--7-----------------7-----------------x----------------
A|--5h7s9p7--5h7------------------4------3----5----------5-7s9---5---5h7s9p7--5h7-------5h7s9p7--5h7--
E|----------------7----7-7------3----3---------------5-7---------------------------7------------------

      Gm     C    D
e|------------------------|
B|----3--3---5----7--7----|
G|----3--3---5----7--7----|
D|----4--4---5----7--7----|
A|----4------3----5-------|
E|----3----3--------------|


[Verse 3]

    D             Bm             D            Bm            D
e|-----------------------------------------------------------------------------|
B|-----7-------7-----7------7-------7------7-----7------7-------7--------------|
G|-----7-------7-----7------7-------7------7-----7------7-------7--------------|
D|-----7-------7-----x------x-------7------7-----x------x-------7--------------|
A|--5-----5-5--------------------5----5-5--------------------5----5h7s9p7--5h7-|
E|-------5--------7----7-7----5---------------7----7-7----5---------------------

    G               Bb        C        
e|----------------------------------|
B|--x--2---x--2-----3--3--3---5--7--|
G|--0--0---x--0-----3--3--3---5--7--|
D|--x--0---0--0-----3--3--3---5--7--|
A|--2--x---2--x--0--1-----1---3--5--|
E|--3------3------------------------|

[Pre-Chorus]
    Bm                           D
e|-------------------------------2-2-2-2-2-2-2-2-2-2-2-2-2-2-2-2-2--|
B|---3---3--3--3--3--3--3--3-----3-3-3-3-3-3-3-3-3-3-3-3-3-3-3-3-3--|
G|---4---4--4--4--4--4--4--4-----2-2-2-2-2-2-2-2-2-2-2-2-2-2-2-2-2--|
D|---4---4--4--4--4--4--4--4-----0-0-0-0-0-0-0-0-0-0-0-0-0-0-0-0-0--|
A|---2-2---2--2--2--2--2--2---2-------------------------------------|
E|------------------------------------------------------------------|

     Bm                        A
e|--------------------------------------------------------------|
B|---3---3--3--3--3--3--3--3---2-2-2-2-2-2-2-2-2-2-2-2-2-2-2-2--|
G|---4---4--4--4--4--4--4--4---2-2-2-2-2-2-2-2-2-2-2-2-2-2-2-2--|
D|---4---4--4--4--4--4--4--4---2-2-2-2-2-2-2-2-2-2-2-2-2-2-2-2--|
A|---2-2---2--2--2--2--2--2----0-0-0-0-0-0-0-0-0-0-0-0-0-0-0-0--|
E|--------------------------------------------------------------|

[Chorus]
                     B          Gm       C    D                  D                Bm
e|----------------------------------------------------------------------------------------------------
B|-------------------7-----7------3--3---5----7--7-----------------7-----------------7----------------
G|-------------------7-----7------3--3---5----7--7-----------------7-----------------7----------------
D|-------------------x-----x------4--4---5----7--7-----------------7-----------------x----------------
A|--5h7s9p7--5h7------------------4------3----5----------5-7s9---5---5h7s9p7--5h7-------5h7s9p7--5h7--
E|----------------7----7-7------3----3---------------5-7---------------------------7------------------

      Gm     C    D
e|------------------------|
B|----3--3---5----7--7----|
G|----3--3---5----7--7----|
D|----4--4---5----7--7----|
A|----4------3----5-------|
E|----3----3--------------|


[Solo]

e|----------------------------------------------------------------------------------
B|-------10h12--12-12p10-----10h12-10h12--12-12p10----------------------------------
G|--9h11-----------------11------------------------11--10h11-11-11-11-10-10/-----7--
D|----------------------------------------------------------------------------/9----
A|----------------------------------------------------------------------------------
E|----------------------------------------------------------------------------------

e|--14-13--------------------------------------------9b-10b-12b-14/----------|
B|---------10h12-12---10h12s15--10h12-12-10-13p12-10-------------------------|
G|---------------------------------------------------------------------------|
D|---------------------------------------------------------------------------|
A|---------------------------------------------------------------------------|
E|---------------------------------------------------------------------------|


[Chorus/Outro]
    B             Gm        C    D                 D                Bm
e|----------------------------------------------------------------------------------------
B|---7-----7------3--3---5----7--7-------------------7-----------------7------------------
G|---7-----7------3--3---5----7--7-------------------7-----------------7------------------
D|---x-----x------4--4---5----7--7-------------------7-----------------x------------------
A|-------------------4------3----5----------5-7s9--5---5h7s9p7--5h7-------5h7s9p7--5h7----
E|--7----7-7------3----3---------------5-7---------------------------7--------------------

      Gm     C    D
e|------------------------|
B|----3--3---5----7--7----|
G|----3--3---5----7--7----|
D|----4--4---5----7--7----|
A|----4------3----5-------|
E|----3----3--------------|

            
Submit corrections


        Dont Know How To Love You Live lessons Hard to play? Try these video lessons and learn fast Dont Know How To Love You Live lessons
        
↑ Back to top | Tablatures and chords for acoustic guitar and electric guitar, ukulele, drums are parodies/interpretations of the original songs. You may use it for private study, scholarship, research or language learning purposes only