» » »

Haley Reinhart - Cant Help Falling In Love Tabs

Artists:  A B C D E F G H I J K L M N O P Q R S T U V W X Y Z # 

Cant Help Falling In Love Tabs

(ver. 1) Click to play this song!
Haley Reinhart
 Rating:
3.5/5 (26 votes)

 Cant Help Falling In Love  lessons Tabs too difficult? Try these video lessons and learn fast
 
                Tuning: Standard

Verse 1:

e|---3----------0-1---0------------------------------------------------------|
B|1------1-----3----------3------------0---1---3-5-6-5------3---1------------|
G|-------------------------------0-2-----------------------------------------|
D|---------------------------------------------------------------------------|
A|---------------------------------------------------------------------------|
E|---------------------------------------------------------------------------|

Verse 2:

e|---------------------------------------------------------------------------|
B|----------8--h10-----------------------------------------------------------|
G|---------------------------7-9-10-p9-9-h10p9---7--h9-----------------------|
D|-10p9-10----------10\7-----------------------------------------------------|
A|---------------------------------------------------------------------------|
E|---------------------------------------------------------------------------|

e|---------------------------------------------------------------------------|
B|---------------------------------------------------------------------------|
G|-9-7p5-5-------------7-9-10\9-9-p7--7-p5--5--------------------------------|
D|--------h7--7/9--10--------------------------------------------------------|
A|---------------------------------------------------------------------------|
E|---------------------------------------------------------------------------|

Bridge:

e|---------------------------------------------------------------------------|
B|-----8-h12-12\10--------8-12-10-p7----------8-12-10-p7---------------------|
G|---9------------------9-------------------9--------------------------------|
D|-9------------------9-------------------9----------------------------------|
A|---------------------------------------------------------------------------|
E|---------------------------------------------------------------------------|

e|---------------------------------------------------------------------------|
B|-8-8----8------------------------------------------------------------------|
G|------9---9-10--/-12-------------------------------------------------------|
D|---------------------------------------------------------------------------|
A|---------------------------------------------------------------------------|
E|---------------------------------------------------------------------------|

Verse 3: 
e|---------------------------------------------------------------------------|
B|-----8--h10-----------------------------------------------------------|
G|------------------------7-9-10-p9-9-h10p9---7--h9-----------------------|
D|-10----------10\7-----------------------------------------------------|
A|---------------------------------------------------------------------------|
E|---------------------------------------------------------------------------|

e|---------------------------------------------------------------------------|
B|---------------------------------------------------------------------------|
G|-9-7p5-5-----------------------7-9-10\9-9-p7--7-p5--5----------------------|
D|--------h7--9-h10p9p7h9-10-p7----------------------------------------------|
A|---------------------------------------------------------------------------|
E|---------------------------------------------------------------------------|
            
Submit corrections


        Cant Help Falling In Love  lessons Hard to play? Try these video lessons and learn fast Cant Help Falling In Love  lessons
        
↑ Back to top | Tablatures and chords for acoustic guitar and electric guitar, ukulele, drums are parodies/interpretations of the original songs. You may use it for private study, scholarship, research or language learning purposes only