Home » H » Halestorm »

Halestorm - Heathens Tabs

Artists:  A B C D E F G H I J K L M N O P Q R S T U V W X Y Z # 

Heathens Tabs

(ver. 1) Click to play this song!
Halestorm
[Intro]
e|------------------------|------------------------|
B|------------------------|------------------------|
G|-7-----6-----4-----6----|-2-----6-----------6----|
D|-0--0-----0--0--0-----0-|-0--0-----0-----0-----0-|
A|------------------------|------------------------|
D|------------------------|------------------------| x6

e|------------------------|
B|------------------------|
G|------------------------|
D|------------------------|
A|------0-0------0-0------|
D|------0-0------0-0------| x2
        * *      * *
[Chorus]
e|------------------------|------------------------|
B|------------------------|------------------------|
G|-6--6--6--6--7--7--7--7-|------------------------|
D|-6--6--6--6--7--7--7--7-|-4--4--4--4--4--4--4--4-|
A|-4--4--4--4--5--5--5--5-|-4--4--4--4--4--4--4--4-|
D|------------------------|-4--4--4--4--4--4--4--4-| 2x

e|------------------------|------------------------|
B|------------------------|------------------------|
G|-7--7--7--7--6--6--6--6-|------------------------|
D|-7--7--7--7--6--6--6--6-|-4--4--4--4--4--4--4--4-|
A|-5--5--5--5--4--4--4--4-|-4--4--4--4--4--4--4--4-|
D|------------------------|-4--4--4--4--4--4--4--4-| 2x

[Verse]
e|------------------------|------------------------|
B|------------------------|------------------------|
G|--2---------------------|--4---------------------|
D|--0---------------------|--0---------------------|
A|------------------------|------------------------|
D|------------------------|------------------------| 2x

e|------------------------|------------------------|
B|------------------------|------------------------|
G|--2----------6----------|--4---------------------|
D|--0----------0----------|--0---------------------|
A|------------------------|------------------------|
D|------------------------|------------------------| 2x

[Chorus]
e|------------------------|------------------------|
B|------------------------|------------------------|
G|-6--6--6--6--7--7--7--7-|------------------------|
D|-6--6--6--6--7--7--7--7-|-4--4--4--4--4--4--4--4-|
A|-4--4--4--4--5--5--5--5-|-4--4--4--4--4--4--4--4-|
D|------------------------|-4--4--4--4--4--4--4--4-| 2x

e|------------------------|------------------------|
B|------------------------|------------------------|
G|-7--7--7--7--6--6--6--6-|------------------------|
D|-7--7--7--7--6--6--6--6-|-4--4--4--4--4--4--4--4-|
A|-5--5--5--5--4--4--4--4-|-4--4--4--4--4--4--4--4-|
D|------------------------|-4--4--4--4--4--4--4--4-| 2x

[Verse]
e|------------------------|------------------------|
B|------------------------|------------------------|
G|-7--7-------------------|------------------------|
D|-7--7-------------------|-4--4-------------------|
A|-5--5-------------0-0---|-4--4-------------0-0---|
D|------------------0-0---|-4--4-------------0-0---| 2x
                    * *                      * *
e|------------------------|------------------------|
B|------------------------|------------------------|
G|-7-----7-----6-----6----|------------------------|
D|-7-----7-----6-----6----|-4-----4-----4-----4----|
A|-5-----5-----4-----4----|-4-----4-----4-----4----|
D|------------------------|-4-----4-----4-----4----| 2x

[Interlude]
e|------------------------|-------------------------|
B|------------------------|-------------------------|
G|-7--7--7--7--6--6--6--6-|-------------------------|
D|-7--7--7--7--6--6--6--6-|-4--4--4--4--4--4--4-----|
A|-5--5--5--5--4--4--4--4-|-4--4--4--4--4--4--4-0-0-|
D|------------------------|-4--4--4--4--4--4--4-0-0-| 2x
                                                * *
e|------------------------|------------------------|
B|------------------------|------------------------|
G|-7--7--7--7--6--6--6--6-|------------------------|
D|-7--7--7--7--6--6--6--6-|-4--4--4--4--4--4--4--4-|
A|-5--5--5--5--4--4--4--4-|-4--4--4--4--4--4--4--4-|
D|------------------------|-4--4--4--4--4--4--4--4-|

[Verse]
e|------------------------|------------------------|
B|------------------------|------------------------|
G|-7-----6-----4-----6----|-2-----6----------------|
D|----0-----0-----0-----0-|----0-----0-------------|
A|------------------------|------------------------|
D|------------------------|------------------------| 2x

e|------------------------|------------------------|
B|------------------------|------------------------|
G|-7--7--7--7--6--6--6--6-|------------------------|
D|-7--7--7--7--6--6--6--6-|-4--4--4--4--4--4--4--4-|
A|-5--5--5--5--4--4--4--4-|-4--4--4--4--4--4--4--4-|
D|------------------------|-4--4--4--4--4--4--4--4-|

e|------------------------|------------------------|
B|------------------------|------------------------|
G|-7--7--7--7--6--6--6--6-|------------------------|
D|-7--7--7--7--6--6--6--6-|-4--4--4--4--4--4--4----|
A|-5--5--5--5--4--4--4--4-|-4--4--4--4--4--4--4----|
D|------------------------|-4--4--4--4--4--4--4----|

[Chorus]
e|------------------------|-------------------------|
B|------------------------|-------------------------|
G|-6--6--6--6--7--7--7--7-|-------------------------|
D|-6--6--6--6--7--7--7--7-|-4--4--4--4--4--4--4-----|
A|-4--4--4--4--5--5--5--5-|-4--4--4--4--4--4--4-0-0-|
D|------------------------|-4--4--4--4--4--4--4-0-0-| 2x
                                                * *
e|------------------------|------------------------|
e|------------------------|-------------------------|
G|-7--7--7--7--6--6--6--6-|-------------------------|
D|-7--7--7--7--6--6--6--6-|-4--4--4--4--4--4--4-----|
A|-5--5--5--5--4--4--4--4-|-4--4--4--4--4--4--4-0-0-|
D|------------------------|-4--4--4--4--4--4--4-0-0-|
                                                * *
e|------------------------|------------------------|
B|------------------------|------------------------|
G|-7--7--7--7--6--6--6--6-|------------------------|
D|-7--7--7--7--6--6--6--6-|-4--4--4--4--4--4--4--4-|
A|-5--5--5--5--4--4--4--4-|-4--4--4--4--4--4--4--4-|
D|------------------------|-4--4--4--4--4--4--4--4-|

[Outro]
e|------------------------|------------------------|
B|------------------------|------------------------|
G|-7-----6-----4-----6----|-2-----6-----------6----|
D|----0-----0-----0-----0-|----0-----0-----0-----0-|
A|------------------------|------------------------|
D|------------------------|------------------------| 4x            
Submit corrections

↑ Back to top | Tablatures and chords for acoustic guitar and electric guitar, ukulele, drums are parodies/interpretations of the original songs. You may use it for private study, scholarship, research or language learning purposes only