» » »

Halestorm - Dear Daughter solo Tabs

Artists:  A B C D E F G H I J K L M N O P Q R S T U V W X Y Z # 

Dear Daughter solo Tabs

(ver. 1) Click to play this song!
Halestorm
 Rating:
4.3/5 (6 votes)

 Dear Daughter solo lessons Tabs too difficult? Try these video lessons and learn fast
 
                

[Solo 1]

   at 2:08
e|------------------------------|--------------------------------|--------------------------|
B|-7~~~~---7~~~---7~~~----------|-7~~~~---7~~~---7~~~------------|-7----7-------------------|
G|-9b11~---b11~---b11~----------|-9b11~---b11~---b11~------------|----9----7------------9---|
D|------------------------------|--------------------------------|-------------9------------|
A|------------------------------|--------------------------------|--------------------------|
E|------------------------------|--------------------------------|--------------------------|

e|------------------------------|----------------0-----0------|-0---------0-------0------0-----|
B|---------------7~--7-7~--8~---|-7~-------7/10----10----/12--|------7--------10-----10----/12-|
G|-9~~~-------------------------|-----------------------------|--------------------------------|
D|------------------------------|-----------------------------|--------------------------------|
A|------------------------------|-----------------------------|--------------------------------|
E|------------------------------|-----------------------------|--------------------------------|

e|-----0-----0-----------0-----0-----|-----0-----0--------0-------------------|
B|-12----12----12----15----15----15--|-17----17----17----10-------------------|
G|-----------------------------------|----------------------------------------|
D|-----------------------------------|----------------------------------------|
A|-----------------------------------|----------------------------------------|
E|-----------------------------------|----------------------------------------|



[Outro Solo]

   at 4:20
e|-/10~~~~~~---------------10--|-13---10-10~~---------10~~-------|-13---10------------10-----------|
B|---------------------/10-----|----------------13-13------------|-----------13p10-13--------------|
G|-----------------------------|---------------------------------|---------------------------------|
D|-----------------------------|---------------------------------|---------------------------------|
A|-----------------------------|---------------------------------|---------------------------------|
E|-----------------------------|---------------------------------|---------------------------------|

e|----------------------------|-------------------------------|------------------------------|----------|
B|----------------------------|-------------------------------|------------------------------|----------|
G|------7--5------------------|-------------------------------|------------------------------|----------|
D|------------5h7p5h7--5------|-3-------3---------3-3---------|-3------3---------3-3---------|--5/7~----|
A|-------------------------5--|----5~---------3h5-------5p3h5-|----5~--------3h5-------5p3h5-|----------|
E|----------------------------|-------------------------------|------------------------------|----------|

            
Submit corrections


        Dear Daughter solo lessons Hard to play? Try these video lessons and learn fast Dear Daughter solo lessons
        
↑ Back to top | Tablatures and chords for acoustic guitar and electric guitar, ukulele, drums are parodies/interpretations of the original songs. You may use it for private study, scholarship, research or language learning purposes only