» » »

Halestorm - Tabs

Artists:  A B C D E F G H I J K L M N O P Q R S T U V W X Y Z # 

Tabs

(ver. 1) Click to play this song!
Halestorm
 Rating:
4.3/5 (10 votes)


  lessons Tabs too difficult? Try these video lessons and learn fast
 
                Intro]

   7 beats in each bar   
e|---------------------------------------------|
B|---------------------------------------------|
G|-------------6-----------------6-------------|
D|-------7--------7--------7--------7----------|
A|-5--5--------------5--5----------------------|
D|-5--5-----5--------5--5-----5----------------|

e|-------------------------------------7NH-----|
B|-------------------------------------7NH-----|
G|-------------6-----------------6-------------|
D|-------7--------7--------7--------7----------|
A|-5--5--------------5--5----------------------|
D|-5--5-----5--------5--5-----5----------------|



[Chorus 1]
   4/4 time
e|-------------------------|-------------------------|-------------------------|-------------------------|
B|-------------------------|-------------------------|-------------------------|-------------------------|
G|-7--7--7--7--7--7--7--7--|-------------------------|-4--4--4--4--4--4--4--4--|-4--4--4--4--4--4--4--4--|
D|-7--7--7--7--7--7--7--7--|-7--7--7--7--7--7--7--7--|-4--4--4--4--4--4--4--4--|-4--4--4--4--4--4--4--4--|
A|-5--5--5--5--5--5--5--5--|-4--4--4--4--4--4--4--4--|-2--2--2--2--2--2--2--2--|-2--2--2--2--2--2--2--2--|
D|-------------------------|-------------------------|-------------------------|-------------------------|


[Verse 1]

   2 guitars
e|-0--------0--------------|----5-----5--------5-----|
B|-0--------0--------------|-------------0-----------|
G|-6--------4--------------|-------6--------6--------|  play 3x
D|-7--------5--------------|-------------------------|  
A|-7--------5--------------|-------------------------|
D|-7--------5--------------|-------------------------|

e|-0--------0------------5-|-5--5--5--5--5--5--5-----|
B|-0--------0------------0-|-0--0--0--0--0--0--0-----|
G|-6--------4------------6-|-6--6--6--6--6--6--6-----|
D|-7--------5--------------|-------------------------|  
A|-7--------5--------------|-------------------------|
D|-7--------5--------------|-------------------------|


[Chorus 2]

   play 2x
e|-------------------------|-------------------------|-------------------------|-------------------------|
B|-------------------------|-------------------------|-------------------------|-------------------------|
G|-7--7--7--7--7--7--7--7--|-------------------------|-4--4--4--4--4--4--4--4--|-4--4--4--4--4--4--4--4--|
D|-7--7--7--7--7--7--7--7--|-7--7--7--7--7--7--7--7--|-4--4--4--4--4--4--4--4--|-4--4--4--4--4--4--4--4--|
A|-5--5--5--5--5--5--5--5--|-4--4--4--4--4--4--4--4--|-2--2--2--2--2--2--2--2--|-2--2--2--2--2--2--2--2--|
D|-------------------------|-------------------------|-------------------------|-------------------------|



[Verse 2]

   2 guitars
e|-0--------0--------------|----5-----5--------5-----|
B|-0--------0--------------|-------------0-----------|
G|-6--------4--------------|-------6--------6--------|  play 3x
D|-7--------5--------------|-------------------------|  
A|-7--------5--------------|-------------------------|
D|-7--------5--------------|-------------------------|

e|-0--------0------------5-|-5--5--5--5--5--5--5-----|
B|-0--------0------------0-|-0--0--0--0--0--0--0-----|
G|-6--------4------------6-|-6--6--6--6--6--6--6-----|
D|-7--------5--------------|-------------------------|  
A|-7--------5--------------|-------------------------|
D|-7--------5--------------|-------------------------|



[Chorus 3]

   play 4x
e|-------------------------|-------------------------|-------------------------|-------------------------|
B|-------------------------|-------------------------|-------------------------|-------------------------|
G|-7--7--7--7--7--7--7--7--|-------------------------|-4--4--4--4--4--4--4--4--|-4--4--4--4--4--4--4--4--|
D|-7--7--7--7--7--7--7--7--|-7--7--7--7--7--7--7--7--|-4--4--4--4--4--4--4--4--|-4--4--4--4--4--4--4--4--|
A|-5--5--5--5--5--5--5--5--|-4--4--4--4--4--4--4--4--|-2--2--2--2--2--2--2--2--|-2--2--2--2--2--2--2--2--|
D|-------------------------|-------------------------|-------------------------|-------------------------|



[Bridge]

   Guitar 1 
e|-------------------------|-------------------------|-------------------------|-------------------------|
B|-------------------------|-------------------------|-------------------------|-------------------------|
G|-------------------------|-------------------------|-------------------------|-5--5--5--5-/7--7--7--7--|
D|-7--7--7--7--7--7--7--7--|-5--5--5--5--5--5--5--5--|-0--0--0--0--0--0--0--0--|-5--5--5--5-/7--7--7--7--|
A|-7--7--7--7--7--7--7--7--|-5--5--5--5--5--5--5--5--|-0--0--0--0--0--0--0--0--|-3--3--3--3-/5--5--5--5--|
D|-7--7--7--7--7--7--7--7--|-5--5--5--5--5--5--5--5--|-0--0--0--0--0--0--0--0--|-------------------------|

e|-------------------------|-------------------------|-------------------------|------------------------|
B|-------------------------|-------------------------|-------------------------|------------------------|
G|-------------------------|-------------------------|-------------------------|-5--------7-------------|
D|-7--7--7--7--7--7--7--7--|-5--5--5--5--5--5--5--5--|-0--0--0--0--0--0--0--0--|-5--------7-------------|
A|-7--7--7--7--7--7--7--7--|-5--5--5--5--5--5--5--5--|-0--0--0--0--0--0--0--0--|-3--------5-------------|
D|-7--7--7--7--7--7--7--7--|-5--5--5--5--5--5--5--5--|-0--0--0--0--0--0--0--0--|------------------------|

e|-------------------------|
B|-------------------------|
G|-------------------------| <- only 2 beats
D|---5---------------------|    before next part
A|---3---------------------|
D|-------------------------|




[Redo Intro]
e|---------------------------------------------|
B|---------------------------------------------|
G|-------------6-----------------6-------------|
D|-------7--------7--------7--------7----------|
A|-5--5--------------5--5----------------------|
D|-5--5-----5--------5--5-----5----------------|

e|---------------------------------------------|
B|---------------------------------------------|
G|-------------6-----------------6-------------|
D|-------7--------7--------7--------7~---------|
A|-5--5--------------5--5----------------------|
D|-5--5-----5--------5--5-----5----------------|



[Last Verse]
   Piano and Bass only, 



[Last Chorus]

   play 3x
e|-------------------------|-------------------------|-------------------------|-------------------------|
B|-------------------------|-------------------------|-------------------------|-------------------------|
G|-7--7--7--7--7--7--7--7--|-------------------------|-4--4--4--4--4--4--4--4--|-4--4--4--4--4--4--4--4--|
D|-7--7--7--7--7--7--7--7--|-7--7--7--7--7--7--7--7--|-4--4--4--4--4--4--4--4--|-4--4--4--4--4--4--4--4--|
A|-5--5--5--5--5--5--5--5--|-4--4--4--4--4--4--4--4--|-2--2--2--2--2--2--2--2--|-2--2--2--2--2--2--2--2--|
D|-------------------------|-------------------------|-------------------------|-------------------------|



[Ending]
e|-------------------------|-------------------------|
B|-------------------------|-------------------------|
G|-------------------------|-------------------------|  play 3x
D|---7--7--7--7--7------7--|-7--7--7--7--------------|
A|---7--7--7--7--7------7--|-7--7--7--7--------------|
D|---7--7--7--7--7------7--|-7--7--7--7--------------|

e|-------------------------|-------------------------|
B|-------------------------|-------------------------|
G|-------------------------|-------------------------|
D|---7--7--7--7--7------7--|-7--7--7--7-----7--------|  hold last chord and add vibrato
A|---7--7--7--7--7------7--|-7--7--7--7-----7--------|
D|---7--7--7--7--7------7--|-7--7--7--7-----7--------|
            
Submit corrections



         lessons Hard to play? Try these video lessons and learn fast  lessons
        
↑ Back to top | Tablatures and chords for acoustic guitar and electric guitar, ukulele, drums are parodies/interpretations of the original songs. You may use it for private study, scholarship, research or language learning purposes only