Home » H » Halestorm »

Halestorm - Amen Tabs

Artists:  A B C D E F G H I J K L M N O P Q R S T U V W X Y Z # 

Amen Tabs

(ver. 1) Click to play this song!
Halestorm
[Intro]

       PM            PM  PM                PM  PM               PM  PM        
E|-----------------------|----------------------|-----------------------|
B|-----------------------|----------------------|-----------------------|
G|-----------------------|----------------------|-----------------------|
D|------4----5-----------|----4----5------------|--4----5---------------|
A|--7---7----7----7---7--|----7----7----7---7---|--7----7----7---7------|
D|-----------------------|----------------------|-----------------------|

                       PM                  PM    PM      
E|-------------------------|----------------------------|
B|-------------------------|----------------------------|
G|-------------------------|----------------------------|
D|-----4----5---------(2)--|----4----5----(2)---(2)---4-|
A|--7------------5-----3---|----3----3-----3-----3----3-|
D|-------------------------|----------------------------|

              PM    PM                  PM PM      PM PM  
E|---------------------------|---------------------------|
B|---------------------------|---------------------8--8--|
G|---------------------------|---------------------------|
D|------5----(2)---(2)---4---|--5-------5--5-------5--5--|
A|------3-----3-----3----3---|--3------------------------|
D|---------------------------|---------------------------|


[Verse]

       PM            PM  PM                PM  PM               PM  PM        
E|-----------------------|----------------------|-----------------------|
B|-----------------------|----------------------|-----------------------|
G|-----------------------|----------------------|-----------------------|
D|------4----5-----------|----4----5------------|--4----5---------------|
A|--7---7----7----7---7--|----7----7----7---7---|--7----7----7---7------|
D|-----------------------|----------------------|-----------------------|

                       PM                  PM    PM      
E|-------------------------|----------------------------|
B|-------------------------|----------------------------|
G|-------------------------|----------------------------|
D|-----4----5---------(2)--|----4----5----(2)---(2)---4-|
A|--7------------5-----3---|----3----3-----3-----3----3-|
D|-------------------------|----------------------------|

              PM    PM                  PM PM      PM PM  
E|---------------------------|---------------------------|
B|---------------------------|---------------------8--8--|
G|---------------------------|---------------------------|
D|------5----(2)---(2)---4---|--5-------5--5-------5--5--|
A|------3-----3-----3----3---|--3------------------------|
D|---------------------------|---------------------------|


[Chours] 

E|---------------------------------------------------|
B|---------------------------------------------------|
G|---------------------------------------------------|
D|---------------------------------------------------|
A|-2-2--2-2--2-0-2-4-5-4-2-0-------------------------|
D|-2-2--2-2--2-0-2-4-5-4-2-0-------------------------|
                                                        x2               
e|--------------------------------------------------|
B|--------------------------------------------------|
G|5-5--5-5--2-2-------------------------------------|
D|5-5--5-5--2-2--5-2-7-2----------------------------|
A|3-3--3-3--0-0--5-2-7-2----------------------------|
D|---------------5-2-7-2----------------------------|


[Verse]

       PM            PM  PM                PM  PM               PM  PM        
E|-----------------------|----------------------|-----------------------|
B|-----------------------|----------------------|-----------------------|
G|-----------------------|----------------------|-----------------------|
D|------4----5-----------|----4----5------------|--4----5---------------|
A|--7---7----7----7---7--|----7----7----7---7---|--7----7----7---7------|
D|-----------------------|----------------------|-----------------------|

                       PM                  PM    PM      
E|-------------------------|----------------------------|
B|-------------------------|----------------------------|
G|-------------------------|----------------------------|
D|-----4----5---------(2)--|----4----5----(2)---(2)---4-|
A|--7------------5-----3---|----3----3-----3-----3----3-|
D|-------------------------|----------------------------|

              PM    PM                  PM PM      PM PM  
E|---------------------------|---------------------------|
B|---------------------------|---------------------8--8--|
G|---------------------------|---------------------------|
D|------5----(2)---(2)---4---|--5-------5--5-------5--5--|
A|------3-----3-----3----3---|--3------------------------|
D|---------------------------|---------------------------|


[Chours] 

E|---------------------------------------------------|
B|---------------------------------------------------|
G|---------------------------------------------------|
D|---------------------------------------------------|
A|-2-2--2-2--2-0-2-4-5-4-2-0-------------------------|
D|-2-2--2-2--2-0-2-4-5-4-2-0-------------------------|
                                                        x2               
e|--------------------------------------------------|
B|--------------------------------------------------|
G|5-5--5-5--2-2-------------------------------------|
D|5-5--5-5--2-2--5-2-7-2----------------------------|
A|3-3--3-3--0-0--5-2-7-2----------------------------|
D|---------------5-2-7-2----------------------------|


[Solo]
        
E|---9-------------11---------12-------------14---------|
B|--12b------------14b--------15b------------17b--------|
G|------------------------------------------------------|
D|------------------------------------------------------|
A|------------------------------------------------------|
D|------------------------------------------------------|
       
E|--14b----14b-----------------------------------||
B|----------------16-14----14-16--------------14-||
G|----------------------16-------16-------16-----||
D|----------------------------------18-16--------||
A|-----------------------------------------------||
D|-----------------------------------------------||

E|17b---15-12-15-12~--15-12-15-12~--15-12-15-12~----|
B|--------------------------------------------------|
G|--------------------------------------------------|
D|--------------------------------------------------|
A|--------------------------------------------------|
D|--------------------------------------------------|

E|15-12-17b-----------------------------------------|
B|--------------------------------------------------|
G|--------------------------------------------------|
D|--------------------------------------------------|
A|--------------------------------------------------|
D|--------------------------------------------------|


[Chours] 

E|---------------------------------------------------|
B|---------------------------------------------------|
G|---------------------------------------------------|
D|---------------------------------------------------|
A|-2-2--2-2--2-0-2-4-5-4-2-0-------------------------|
D|-2-2--2-2--2-0-2-4-5-4-2-0-------------------------|
                                                        x2               
e|--------------------------------------------------|
B|--------------------------------------------------|
G|5-5--5-5--2-2-------------------------------------|
D|5-5--5-5--2-2--5-2-7-2----------------------------|
A|3-3--3-3--0-0--5-2-7-2----------------------------|
D|---------------5-2-7-2----------------------------|            
Submit corrections

↑ Back to top | Tablatures and chords for acoustic guitar and electric guitar, ukulele, drums are parodies/interpretations of the original songs. You may use it for private study, scholarship, research or language learning purposes only