Home » H » Hakan Hellstrom »

Hakan Hellstrom - Hoppas Att Det Ska Ga Bra For De Yngre Ocksa Tabs

Artists:  A B C D E F G H I J K L M N O P Q R S T U V W X Y Z # 

Hoppas Att Det Ska Ga Bra For De Yngre Ocksa Tabs

(ver. 1) Click to play this song!
Hakan Hellstrom
Standard tuning, no capo.

e|-------------------------------------------------------------------------------------------------|
b|-------------------------------------------------------------------------------------------------|
g|-------5--------------------0--------------------------------------------------------------------|
d|-----7--------5----------2-------------0------------------------------0--------------------2-----|
a|---8--------7---------3------------2--------------------0--------2---------------------3---------|
E|---------8-----3--------------3-------------1------1--------3--------------5------5--------------|

e|--------------------|
b|--------------------|
g|--------------------|
d|--------------0-----|
a|---------2----------|
E|----3-------------1-|



Mellanspel: Am F C G 


            
Submit corrections

↑ Back to top | Tablatures and chords for acoustic guitar and electric guitar, ukulele, drums are parodies/interpretations of the original songs. You may use it for private study, scholarship, research or language learning purposes only