Home » H » Hakan Hellstrom »

Hakan Hellstrom - Det Ar Sa Jag Sager Det Tabs

Artists:  A B C D E F G H I J K L M N O P Q R S T U V W X Y Z # 

Det Ar Sa Jag Sager Det Tabs

(ver. 1) Click to play this song!
Hakan Hellstrom

Tuning: Standard

e|---0----------2-2-2-2-------0-0-2-0-----------2-2-2-0----------------------|
B|-3---3------3-------------2---------3-------3-----3---3--------------------|
G|----------2-------------2-----------------4--------------------------------|
D|--------0------------------------------------------------------------------|
A|----------------------0-----------------2----------------------------------|
E|---------------------------------------------------------------------------|
hon lag pa gatan medan rymdskeppen sande meddelanden genom

e|-------0-0-------2oh0-------------------------------------------------0----|
B|-----1---------1-------3----------3----------0---------2---------2oh3---3--|
G|---2---------2-----------0---0------2---2------1---1-----2-----------------|
D|-----------0---------------0---0------3---3------2---2-----2---------------|
A|-0-----------------------------------------------------0-------------------|
E|-----------------------3----------2----------0-----------------------------|
   atmos-    far-       en                                        Hon kar sig i

e|-------2-2-2-2-------0-0-2-0-----------2-2-2-0---------0-0-------2oh0------|
B|-----3-------------2---------3-------3-----3---3-----1---------1-----------|
G|---2-------------2-----------------4---------------2---------2-------------|
D|-0---------------------------------------------------------0---------------|
A|---------------0-----------------2---------------0-------------------------|
E|---------------------------------------------------------------------------|
   handleden  i solskenet     for hon sager  att  hon  redan sett

e|-3----------2-----------0---------0--------2-----2-------23-0---------2----|
B|---3---3-------3---3------0---0-----2---2----3---------3------3-----3------|
G|-----4---4-------2---2------1---1-----0--------2-----2------------2--------|
D|-------------------------------------------0-------0------------0----------|
A|----------------------------------0----------------------------------------|
E|-3----------2-----------0--------------------------------------------------|
 spanien                ochvarldenfortjanarintedig for du ar det finastejagvet  
     
e|-3oh5-5-7--10--10--7-------9--9----7---------------------2-2-2-2--7--------|
B|----------------------10-------10-----8--------3oh5-----3-----------10-----|
G|--------0-------------------------------9--------------2----------0----7---|
D|------------------------------------------------------0--------------------|
A|----------------------9------------7---------------------------------------|
E|---------------------------------------------------------------------------|
 nar allt annat har  kanns falskt och fel   och    jag gar bara   ner mig

e|-3oh5-5-7------------------------------0-0-2-------------------------------|
B|--------8--10---10-------------------2-----------3-------------------------|
G|--------9--9-------11--------------2---------2-----------------------------|
D|--------0--0----------12--12-----------------------------------------------|
A|----------------9---------------0------------------------------------------|
E|---------------------------------------------------------------------------|
for det ar sa jag sager det, du ar det finaste jag vet

e|---0---------2-2---0-0-1-0---------2-2-------2oh0--------------------------|
B|-3---3-----3-----3---------3-----3---------1-------3-----------------------|
G|---------2---------------------4---------2-----------0---0-----------------|
D|-------0-----------------------------------------------0---0---------------|
A|-------------------4---------2---------0-----------------------------------|
E|---------------------------------------------------3-----------------------|
Det kan ta sl*t i morgon eller halla pa for alltid, ibland ar det sa...

e|--------------------------------0---------2-2-2-2-------0-0-1-5------------|
B|-3---------0---------2-----2oh3---3-----3-------------2--------------------|
G|---2---2-----1---1-----0--------------2-------------2----------------------|
D|-----4---4-----2---2-----2----------0--------------------------------------|
A|---------------------0----------------------------0------------------------|
E|-2---------0---------------------------------------------------------------|
                      sag som det ar for den har   gangen kravs det

e|-----------2-0---------0-0-------2oh0----------0----------2----------------|
B|-------3-3-3---3-----1---------3-------3----------3------------------------|
G|-----4-------------2---------2-----------0---0------4---4------------------|
D|---4-----------------------0---------------0----------4--------------------|
A|-2---------------0--------------------------------2------------------------|
E|---------------------------------------3-----------------------------------|
 mer, innan jag   oppnar    armarna forlorar mig och kanslorna faller fritt

e|-0------0-0------0------0---------2-2-2-2-------0-0-2-0----------2-2-2-0---|
B|---0--0-----2--2---2oh3---3-----3-------------2---------3------3-----3---3-|
G|-----1--------2---------------2-------------2----------------4-------------|
D|----------------------------0----------------------------------------------|
A|----------0-------------------------------0----------------2---------------|
E|-0-------------------------------------------------------------------------|
                     pa midnattsgatorna, for vem skulle bry sig om vara hjartan blev

e|-------0-0-------2oh0------------0-----------2-0-------0-0-------0---------|
B|-----1---------1-------3-----------3-------------0---0-----2---2-----------|
G|---2---------2-----------0---0-------2---2---------1---------2-------------|
D|-----------0---------------0---0-------3---3-------------------------------|
A|-0-------------------------------------------------------0-----------------|
E|-----------------------3-----------2-----------0---------------------------|
                forstorda? Men allt det har vander sig in i mig

e|--2-----2-------23-0---------2----|
B|----3---------3------3-----3------|
G|------2-----2------------2--------|
D|--0-------0------------0----------|
A|----------------------------------|
E|----------------------------------|
 och du ar det finastejagvet  
     
e|-3oh5-5-7--10--10--7-------9--9----7---------------------2-2-2-2--7--------|
B|----------------------10-------10-----8--------3oh5-----3-----------10-----|
G|--------0-------------------------------9--------------2----------0----7---|
D|------------------------------------------------------0--------------------|
A|----------------------9------------7---------------------------------------|
E|---------------------------------------------------------------------------|
 nar allt annat har  kanns falskt och fel   och    jag gar bara   ner mig

e|-3oh5-5-7------------------------------0-0-2-------------------------------|
B|--------8--10---10-------------------2-----------3-------------------------|
G|--------9--9-------11--------------2---------2-----------------------------|
D|--------0--0----------12--12-----------------------------------------------|
A|----------------9---------------0------------------------------------------|
E|---------------------------------------------------------------------------|
for det ar sa jag sager det, du ar det finaste jag vet


e|-2-0---0-2-5-0-------------------------2-------2-0------------0------------|
B|-----3---------2---2---------3-2---2-3-------1------3-------3--------------|
G|-----------------2---2-----4-----4---------2----------0---0----------------|
D|-0-----------------------4------------------------------0------------------|
A|-------------0---------2-----------------0---------------------------------|
E|----------------------------------------------------3----------------------|
   D            A        B                 D7/A       G

e|-2-------2-3-0-------0-2-0-------0---2-------2-3----5------5-3-------------|
B|---3---3-------0---0-------2---2---3---3---3---------3---3-----------------|
G|-----2-----------0-----------2-----------2-------------4-------------------|
D|-0-----------------------------------0-------------------------------------|
A|-------------------------0-------------------------------------------------|
E|-------------0--------------------------------------3----------------------|
   D           E           A            D             A

e|-2------2-0--0-------------2-0-------------0--2-------2-3--0-------0-2-----|
B|--3---3--------2---2-----1-------3-------3------3---3--------0---0---------|
G|----4------------2-----2-----------0---0----------2------------0-----------|
D|---------------------0---------------0-------------------------------------|
A|-------------0--------------------------------0----------------------------|
E|-2-------------------------------3-------------------------0---------------|
  B            A D7                G            D/A          Em/B    
        
e|-0-------0--------2-2-2-2-------0-0-2-0---------2-2-2-0--------------------|
B|---2---2---3----3-------------2---------3-----3-----3---3------------------|
G|-----2--------2-------------2---------------4------------------------------|
D|------------0--------------------------------------------------------------|
A|-0-------------------------0---------------2-------------------------------|
E|---------------------------------------------------------------------------|
  A         nar jag tankte pa dig

             
Submit corrections

↑ Back to top | Tablatures and chords for acoustic guitar and electric guitar, ukulele, drums are parodies/interpretations of the original songs. You may use it for private study, scholarship, research or language learning purposes only