Home » H » H2o »

H2o - Unconditional Tabs

Artists:  A B C D E F G H I J K L M N O P Q R S T U V W X Y Z # 

Unconditional Tabs

(ver. 1) Click to play this song!
H2o
Key: C

e|---------------------------------------------
B|---------------7-------------7---------------
G|-7--7-7--7-7-9---9--7--7-7-9---9--7----------
D|-------------------------------------9--7--7-
A|---------------------------------------------
E|---------------------------------------------

e|-15-15-15-15-14-14-12-12-------------------12-12-14-14-
B|-------------------------15-15-12-12-15-15-------------
G|-------------------------------------------------------
D|-------------------------------------------------------
A|-------------------------------------------------------
E|-------------------------------------------------------

e|-15-15-14-14-12-12-------------------------------
B|-------------------15-15-12-12-12-12-------------
G|-------------------------------------14-14-14-14-
D|-------------------------------------------------
A|-------------------------------------------------
E|-------------------------------------------------

e|---------------------------------------------------------
B|---------7--------------7--------------7------7--7--7--7-
G|-7-7-7-9---9-7------7-9---9-7------7-9---9-7-------------
D|---------------9--9-----------9--9-----------------------
A|---------------------------------------------------------
E|---------------------------------------------------------

e|--------------------------------------------------
B|-7--7--7--7--7--7--7------------------------------
G|---------------------9-7---7--7--7--7--7--7--7--7-
D|-------------------------9------------------------
A|--------------------------------------------------
E|--------------------------------------------------            
Submit corrections

↑ Back to top | Tablatures and chords for acoustic guitar and electric guitar, ukulele, drums are parodies/interpretations of the original songs. You may use it for private study, scholarship, research or language learning purposes only