» » »

Gustavo Cerati - Otra Piel Bass

Artists:  A B C D E F G H I J K L M N O P Q R S T U V W X Y Z # 

Otra Piel Bass

(ver. 1) Click to play this song!
Gustavo Cerati
 Rating:
4/5 (4 votes)
                +++++++++++++++++++++++++++++
| Gustavo Cerati- Otra Piel |
+++++++++++++++++++++++++++++


"Amo tu lucidez..."

Tuning: EADG


Intro
1.
G|-----------------------------------------------------------------------------------------|
D|---------------------------------------------4~--44~----2~--22~--------------------------|
A|-------------------------------------------------------------------2~--22~---------------|
E|------------------------------------------------------------------------------3~--33~----|

Verse
"Esta tarde de sol me puse a mirar..."
2.
G|-----------------------------------------------------------------------------------------|
D|-4~--44~----2~--22~----1~--11~---------------4~--44~----2~--22~--------------------------|
A|----------------------------------2~--22~--------------------------2~--22~---------------|
E|------------------------------------------------------------------------------3~--33~----|

"Una frase duró hasta el anochecer..."
3.
G|------------------------------------------------------------------------------|
D|-4~--44~----2~--22~----1~--11~---------------4~--44~----2~--22~---------------|
A|----------------------------------2~--22~--------------------------2~--22~----|
E|------------------------------------------------------------------------------|

Pre-Chorus
"Amo tu lucidez..."
4.
G|-----------------------------------------------------------------------------------------|
D|-----------------------0~--00~----1~--11~--------------------------0~--00~---------------|
A|------------------------------------------------------------------------------4~--44~----|
E|-3~--33~----4~--44~--------------------------3~--33~----4~--44~--------------------------|

Chorus
"Si el lenguaje es otra piel..."
5.
G|-----------------------------------------------------------------------------------------|
D|---------------------1-2~--22~-------------------------------------2~--22~--2-0~--00~--0-|
A|----------1-2~--22~---------------2~--22~--4---------------------------------------------|
E|-2~--22~-------------------------------------2~--22~--2-4~--44~--4-----------------------|

"Si el lenguaje es otra piel..."
6.
G|------------------------------------------------------------------------------|
D|---------------------1-2~--22~-------------------------------------2~--22~--2-|
A|----------1-2~--22~---------------2~--22~--4----------------------------------|
E|-2~--22~-------------------------------------2~--22~--2-4~--44~--4------------|

Outro
"Deseo..."
7.
G|----------------------------------------------------------------------------------------------|
D|-2~--22~--0h2-2~--22~---0----------4h6----------2~--22~--0h2-2~--22~---0----------4h6---------|
A|----------------------------------------------------------------------------------------------|
E|--------------------------4~--44~------4~--44~---------------------------4~--44~------4~--44~-|

Pre-Chorus
"No voy a endurecer..."
8.
G|-----------------------------------------------------------------------------------------|
D|-----------------------0~--00~----1~--11~--------------------------0~--00~---------------|
A|------------------------------------------------------------------------------4~--44~----|
E|-3~--33~----4~--44~--------------------------3~--33~----4~--44~--------------------------|

Chorus
"Si el lenguaje es otra piel..."
9.
G|-----------------------------------------------------------------------------------------|
D|---------------------1-2~--22~-------------------------------------2~--22~--2-0~--00~--0-|
A|----------1-2~--22~---------------2~--22~--4---------------------------------------------|
E|-2~--22~-------------------------------------2~--22~--2-4~--44~--4-----------------------|

"Si el lenguaje es otra piel..."
10.
G|---------------------------9-11~--9--------------------------------------------------|
D|------------------------------------9-6-4-2-1-----------------------------2~--22~--2-|
A|----------1-2~--22~--6-7~---------------------4-2-1----------------------------------|
E|-2~--22~--------------------------------------------2~--22~--2-4~--44~--4------------|

Outro
"Deseo..."
11.
G|----------------------------------------------------------------------------------------------|
D|-2~--22~--0h2-2~--22~---0----------4h6----------2~--22~--0h2-2~--22~---0----------4h6---------|
A|----------------------------------------------------------------------------------------------|
E|--------------------------4~--44~------4~--44~---------------------------4~--44~------4~--44~-|
--x2


Lyrics:


Esta tarde de sol me puse a mirar
Tu postal bajo un haz de luz, radiante luz
Una frase duró hasta el anochecer
Recordarte es un hermoso lugar

Amo tu lucidez
Leo tu desnudez
Cuando pensás el mar
Así te pienso igual

Si el lenguaje es otra piel
Toquémonos más
Con mensajes de deseo

No voy a endurecer
Letras que dan placer
Me contengo de amarte más
Hasta volverte a ver



+++++++++++++++++++++++++++++++++
| RaiLeff                       |
+++++++++++++++++++++++++++++++++
            
Submit corrections

↑ Back to top | Tablatures and chords for acoustic guitar and electric guitar, ukulele, drums are parodies/interpretations of the original songs. You may use it for private study, scholarship, research or language learning purposes only