» » »

Gustavo Cerati - Cactus Tabs

Artists:  A B C D E F G H I J K L M N O P Q R S T U V W X Y Z # 

Cactus Tabs

(ver. 1) Click to play this song!
Gustavo Cerati
 Rating:
2.5/5 (20 votes)

 Cactus  lessons Tabs too difficult? Try these video lessons and learn fast
 
                ***DROP D TUNING***
Gtr 1 (D A D G B E)
Gtr 2 (D A D G B E)
Tempo 90 BPM

Complete arrangement is:

INTRO x 2
VERSE x 2
PRE-CHORUS A x 2
VERSE x 2
PRE-CHORUS A x 2
PRE-CHORUS B
CHORUS A
CHORUS B
PRE-CHORUS A x 4
PRE-CHORUS B
CHORUS A
CHORUS B
PRE-CHORUS A x 4
PRE-CHORUS B
ENDING


INTRO/VERSE
GUITAR 1
             Un Cactus Suaviza...
E|----------------|----------------|--------------|--------------|
B|----------------|----------------|--------------|--------------|
G|--5-----5-------|--7-----7-------|--7-----7-----|--2-----2-----|
D|--7-------------|--6-------------|--5-----------|--0-----------|
A|------7---7-----|------7---7-----|------5---5---|------0---0---|
D|--7-------------|--6-------------|--5-----------|--0-----------|
 |                |                |              |              |
GUITAR 2          |                |              |              |
E|---8----8-------|--10---10-------|--7---7-------|--5---5-------|
B|--10---10-------|---9----9-------|--8---8-------|--6---6-------|
G|---9----9-------|---9----9-------|--7---7-------|--7---7-------|
D|----------------|----------------|--------------|--------------|
A|----------------|----------------|--------------|--------------|
D|----------------|----------------|--------------|--------------|


PRE-CHORUS A
GUITAR 1
 En tu nombre...
E|---------------|---------------|---------------|-----------------|
B|--1-----1------|--1-----1------|--1-----1------|----------0------|
G|--2------------|--2------------|--2------------|---1-------------|
D|------2---0----|------0---0----|------0---0----|---2----2---2----|
A|--0------------|---------------|---------------|--(2)------------|
D|---------------|--4------------|--3------------|---2-------------|


PRE-CHORUS B
GUITAR 1
      Cuando te busco...
E|---------------|---------------|---------------|---------------|
B|--1-----1------|--3-----3------|--5-----5------|--6-----6------|
G|--2------------|--0------------|--5------------|--7------------|
D|------2---2----|------0---0----|------5---5----|------7---7----|
A|--0------------|--2------------|--3------------|--5------------|
D|---------------|---------------|---------------|---------------|

E|-----------------|-----------------|------------------|
B|-----------------|-----------------|------------------|
G|---1------1------|---1------1------|-----------1h-2---|
D|---2-------------|---2-------------|--------2---------|
A|--(2)---2---2----|--(2)---2---2----|-----2------------|
D|---2-------------|---2-------------|--2---------------|


CHORUS A
GUITAR 1
    /  / / / /  /  / / / /x2 /  / / / /  /  / / / /x2             x2
E|--0---------------------|--3---------------------|-----------------|    
B|--1---------------------|--3---------------------|-1-------1----3--|
G|--2---------------------|--0---------------------|-2-----2------4--|
D|--2---------------------|--0---------------------|-3---3--------5--|
A|--0---------------------|--2---------------------|-----------------|
D|--x---------------------|--x---------------------|-3------------5--|

CHORUS B
GUITAR 1
 Y los medanos...       Seran tempanos...
     /  / / / /  /  / / / /   /  / / / /  /  / / / /              
E||--0---------------------|--0---------------------| 
B||--1---------------------|--1---------------------|
G||--2---------------------|--0---------------------|
D||--2---------------------|--2---------------------|
A||--0---------------------|--3---------------------|
D||--x---------------------|------------------------|

En el vertigo...       De la eternidad...
    /  / / / /  /  / / / /   /  / / / /  /  / / / /              
E|--3---------------------|--1---------------------||  x2
B|--3---------------------|--1---------------------||
G|--0---------------------|--2---------------------||
D|--0---------------------|--3---------------------||
A|--2---------------------|--3---------------------||
D|--x---------------------|------------------------||

                             uhhh....
    /  / / / /  /  / / / /   /  / / / /  /  / / / /              
E|--1---------------------|--0---------------------|  
B|--1---------------------|--1---------------------|
G|--2---------------------|--2---------------------|
D|--3---------------------|--3---------------------|
A|--3---------------------|--3---------------------|
D|------------------------|------------------------|
                     
E||-----------------||  x2    
B||-1-------1----3--||
G||-2-----2------4--||
D||-3---3--------5--||
A||-----------------||
D||-3------------5--||


ENDING
GUITAR 1
E|-----------0------|     
B|---------1--------|
G|-------2----------|
D|-----2------------|
A|---0--------------|
D|------------------|

            
Submit corrections


        Cactus  lessons Hard to play? Try these video lessons and learn fast Cactus  lessons
        
↑ Back to top | Tablatures and chords for acoustic guitar and electric guitar, ukulele, drums are parodies/interpretations of the original songs. You may use it for private study, scholarship, research or language learning purposes only