Home » G » Gungor »

Gungor - Yesternite Tabs

Artists:  A B C D E F G H I J K L M N O P Q R S T U V W X Y Z # 

Yesternite Tabs

(ver. 1) Click to play this song!
Gungor
E|-7-----------6---7-----------6---|-7-----------6---7---9---6-------|-6-----------4-------4---6-------|
B|-----5---------------5-----------|-----5---------------------------|-----------------7---------------|
G|---------------------------------|-----------------------------6---|-----6-----------------------6---|
D|---------------------------------|---------------------------------|-4-------4-------4-------4-------|
A|-4-------4-------4-------4-------|-4-------4-------4---------------|---------------------------------|
E|---------------------------------|---------------------------------|---------------------------------|


E|---------------------------------|-5-----------4---5-----------4---|-5-----------4---5---7---4----|
B|---------------------------------|-----4---------------4-----------|-----4------------------------|
G|-----6-------6-------6-------6---|---------------------------------|------------------------------|
D|-4-------4-------4-------4-------|-4-------4-------4-------4-------|-4-------4--------------------|
A|---------------------------------|---------------------------------|------------------------------|
E|---------------------------------|---------------------------------|------------------------------|

                                                                    
E|-4-----------2---0---2---4-------|------------------------------|
B|-----0-----------------------0---|------------------------------|
G|---------------------------------|-----5-------6-------8--------|
D|-2-------2-------2-------2-------|-6-------6-------6------------|
A|---------------------------------|------------------------------|
E|---------------------------------|------------------------------|

verse 1 
E|-------------------------------------------------|
B|-------5-----------5-----------5-----------5-----|
G|----------6-----------6-----------6-----------6--|
D|----6-----------6-----------6-----------6--------|
A|-4-----------4-----------4-----------4-----------|
E|-------------------------------------------------|


E|-------------------------------------------------|-------------------------------------------------|
B|-------5-----------5-----------5-----------5-----|-------4-----------4-----------4-----------4-----|
G|----------6-----------6-----------6-----------6--|----------5-----------5-----------5-----------5--|
D|----6-----------6-----------6-----------6--------|----6-----------6-----------6-----------6--------|
A|-4-----------4-----------4-----------4-----------|-3-----------3-----------3-----------3-----------|
E|-------------------------------------------------|-------------------------------------------------|


E|-------------------------------------------------|-------------------------------------------------|
B|-------4-----------4-----------4-----------4-----|-------6-----------6-----------6-----------6-----|
G|----------5-----------5-----------5-----------5--|----------4-----------4-----------4-----------4--|
D|----6-----------6-----------6-----------6--------|----6-----------6-----------6-----------6--------|
A|-3-----------3-----------3-----------3-----------|-4-----------4-----------4-----------4-----------|
E|-------------------------------------------------|-------------------------------------------------|


E|-------------------------------------------------|-------------------------------------------------|
B|-------6-----------6-----------6-----------6-----|-------2-----------2-----------2-----------2-----|
G|----------4-----------4-----------4-----------4--|----------3-----------3-----------3-----------3--|
D|----6-----------6-----------6-----------6--------|----4-----------4-----------4-----------4--------|
A|-4-----------4-----------4-----------4-----------|-1-----------1-----------1-----------1-----------|
E|-------------------------------------------------|-------------------------------------------------|


E|-------2-----------2-----------2-----------2-----|-------------------------------------------------|
B|-------------------------------------------------|-------2-----------2-----------2-----------2-----|
G|----------3-----------3-----------3-----------3--|----------2-----------2-----------2-----------2--|
D|----4-----------4-----------4-----------4--------|----2-----------2-----------2-----------2--------|
A|-1-----------1-----------1-----------1-----------|-0-----------0-----------0-----------0-----------|
E|-------------------------------------------------|-------------------------------------------------|


E|-------------------------------------------------|-------------------------------------------------|
B|-------2-----------2-----------2-----------2-----|-------------------------------------------------|
G|----------2-----------2-----------2-----------2--|-------1-----------1-----------1-----------1-----|
D|----2-----------2-----------2-----------2--------|----------2-----------2-----------2-----------2--|
A|-0-----------0-----------0-----------0-----------|----2-----------2-----------2-----------2--------|
E|-------------------------------------------------|-0-----------0-----------0-----------0-----------|


E|-------------------------------------------------|-------------------------------------------------|
B|-------------------------------------------------|-------------------------------------------------|
G|-------1-----------1-----------1-----------1-----|-------3-----------3-----------3-----------3-----|
D|----------2-----------2-----------2-----------2--|----1-----1-----1-----1-----1-----1-----1-----1--|
A|----2-----------2-----------2-----------2--------|-1-----------1-----------1-----------1-----------|
E|-0-----------0-----------0-----------0-----------|-------------------------------------------------|

                                      alternate intro
E|-----------------------------------|-7-----------6---7-----------6---|-7-----------6---7---9---6-------|
B|-----------------------------------|-----5---------------5-----------|-----5-----------------------5---|
G|-------3-----------3---------------|---------------------------------|---------------------------------|
D|----1-----1-----1-----1------------|---------6---------------6-------|---------6-----------------------|
A|-1-----------1-----------1---------|-4---------------4---------------|-4-------------------------------|
E|-----------------------------------|---------------------------------|---------------------------------|


E|-6-----------4-------4---6-------|---------------------------------|-5-----------4---5-----------4---|
B|-----------------7---------------|-----5-------5-------5-------5---|---------------------4-----------|
G|-----6-----------------------6---|---------6---------------6-------|-------------------------2-------|
D|-4---------------4---------------|-4---------------4---------------|---------4-----------------------|
A|---------------------------------|---------------------------------|-2---------------4---------------|
E|---------------------------------|---------------------------------|---------------------------------|


E|-5-----------4---5---7---4-------|-4-----------2---0---2---4-------|---------------------------------|
B|---------------------------------|-----0-----------------------0---|---------------------------------|
G|---------------------------------|---------------------------------|-----5-------6-------8-----------|
D|---------7-------4---------------|-2-------2-------2-------2-------|-----------------4---6-----------|
A|-6-------------------------------|---------------------------------|---------3-----------------------|
E|---------------------------------|---------------------------------|-4-------------------------------|            
Submit corrections

↑ Back to top | Tablatures and chords for acoustic guitar and electric guitar, ukulele, drums are parodies/interpretations of the original songs. You may use it for private study, scholarship, research or language learning purposes only