Home » G » Gungor »

Gungor - Us For Them Tabs

Artists:  A B C D E F G H I J K L M N O P Q R S T U V W X Y Z # 

Us For Them Tabs

(ver. 1) Click to play this song!
Gungor

Tuning: EADGBe

e|----------------------------------------------------| |
B|----4---4-------4---4-------4---4-------4---4-------|:|
G|------6---6-4-----6---6-4-----6---6-4-----6---6-4---| |
D|--6-----------6-----------4-----------4-------------| |
A|----------------------------------------------------|:|
E|----------------------------------------------------| |

Or Play like this - depending on what you find easier

e|----------------------------------------------------| |
B|----------------------------------------------------|:|
G|----8-6-8-6-4---8-6-8-6-4---8-6-8-6-4---8-6-8-6-4---| |
D|--6-----------6-----------4-----------4-------------| |
A|----------------------------------------------------|:|
E|----------------------------------------------------| |            
Submit corrections

↑ Back to top | Tablatures and chords for acoustic guitar and electric guitar, ukulele, drums are parodies/interpretations of the original songs. You may use it for private study, scholarship, research or language learning purposes only