Home » G » Gungor »

Gungor - My Fathers World Tabs

Artists:  A B C D E F G H I J K L M N O P Q R S T U V W X Y Z # 

My Fathers World Tabs

(ver. 1) Click to play this song!
Gungor
Intro: 
    C        F    G    C
e|----------------------------------|
B|--------1-------0----1-------1----|
G|------0----2------0--------0------|
D|----2--------3---------2h3-----2--|
A|--3--------3---------3------------|
E|----------------3-----------------|

Verse 1:
    C        G*       C               F             C        G
e|---------------3---------------------------------------3------------------|
B|------1----------3----------------------1---1-----0h1------0--------------|
G|--------0-------------------0-------------2----2-----0---0----------------|
D|----2--------0--------2-2h3---2-------------------------------------------|
A|--3--------2--------3-----------------3-----------------------------------|
E|------------------------------------1-------------3-----------------------|
  This is my Father's world      And to my listening ears 
  
    C                 Am              F       G        C
e|--------------------------------------------------------------------------|
B|------1--------1--------0-----1---------1---0---0-1---------1-------------|
G|--------0---------------------------------2---0-----------0---------------|
D|----2--------0--------2-----2--------------------------2h3----2-----------|
A|--3--------2--------------0-----------3--------------3--------------------|
E|--------------------4---------------1-------3-----------------------------|
All nature sings and round me rings The music of the spheres

Chorus 1:
    C        F    G    C                F          G      C            F     
e|-----------------------------0----------------------------------0---------|
B|--------1-------0----1-----1-----1--------1---1----0----1-----1-----------|
G|------0----2------0------0-----0---0--2--------------0------0-----0----2--|
D|----2--------3---------2----------------3---3-------------2----------3----|
A|--3--------3---------3----------------------------------3-----------------|
E|----------------3---------------------1----------3-------------------1----|
This is my   Father's  world       I    rest me in the    thought      Of   

    C              Am       C        F        G        C    
e|--0-----------------------------------------------------------------------|
B|-------1------------------1-1-------------------0h1----------1------------|
G|----0---------0--0-2-1----------2--------2----0------------0--------------|
D|------------0----------2-----------3---3---------------2h3-----2----------|
A|--3-------2------2--------3----------3---------------3--------------------|
E|---------------------0--------3----1--------3-----------------------------|
Rocks and trees of skies and seas His hand the wonders wrought

Interlude:
    F        G          C
e|-----------------------------------|
B|--------1--1---0-1h3--1-------1-1--|
G|--2----------0--------------0---0--|
D|------3-----------------2h3-----2--|
A|----3-----------------3------------|
E|--1--------3-----------------------|

Verse 2:
This is my Father's world
The birds their carols raise
The morning light, the lily white
Declare their Maker's praise

Chorus 2:
This is my Father's world
He shines in all that's fair
In rustling grass I hear Him pass
He speaks to me everywhere

-Interlude-

Verse 3:
This is my Father's world
O let me ne'er forget 
That though the wrong seems oft so strong
God is the ruler yet

Chorus 3: (x2) 
This is my Father's world
Why should my heart be sad?  
The Lord is King; let the heavens ring
God reigns; let the earth be glad

Tag:
    C        Am     F*       G    C        F        G        C
e|------------------1-----1--0----------------------------0------------0----|
B|--------0--3----------0--------------------1---1------3------------1-1----|
G|------1--------0----2--------1--2-----2-------------0------------0---0----|
D|----2--------0--------------------2----------3---------------2h3-----2----|
A|--3---------------2-------------0--------------------------3---------3----|
E|-----------3------------------------3----1--------3-----------------------|
The Lord is King Let the heavens ring God reigns let the earth be glad            
Submit corrections

↑ Back to top | Tablatures and chords for acoustic guitar and electric guitar, ukulele, drums are parodies/interpretations of the original songs. You may use it for private study, scholarship, research or language learning purposes only