Home » G » Guess Who »

Guess Who - His Girl Tabs

Artists:  A B C D E F G H I J K L M N O P Q R S T U V W X Y Z # 

His Girl Tabs

(ver. 1) Click to play this song!
Guess Who
 Rating:
3.3/5 (20 votes)
                Bb/G  e -----
      B --3--
      G --3--
      D --3--
      A --5--
      E --3--

 F          A          G           C     (bass notes only intro)
|----------|----------|----------|----------|

F                   Am                           Bb/G             C
Look at the way the walk down the street you can see... she's his girl
F                      Am                 Bb/G         C
All of the guys I know envy him when they see.... his girl
Bb             F             Bb           F       G               C    
She loves only one boy she's faithful and true if I were that one boy
   G               C
.. I'd be faithful too
F                Am                       Bb/G           C
Perfect in every way from her head to her toe... is his girl
F                   Am                     Bb           A
Maybe if I were his friend then I'd get to know.... his girl
Dm                Bb        C                 A         Dm        Bb
She looks like an angel.... right out of this world and every guy wishes that
 C               F
she were... his girl

(bass only)     F         A          G          C
              |----------|----------|----------|----------|

   F       Am        Bb/G    C           F          Am      Bb         A
e ------------------------------------------------------------------------------|
B ------------------------------------------------------------------------------|
G --------------5-7-5-------------------------------5-7-5-------7--5-7-9--------|
D ---------5-7--------7---7-5-----7-5-----------5-7-------7---7-----------------|
A ---5-7-8--------------8-----8--7--------5-7-8-------------8-------------------|
E -8------------------------------------8---------------------------------------|

Dm                Bb        C                 A         Dm        Bb
She looks like an angel.... right out of this world and every guy wishes that
C               F
she were... his girl

(bass only)   F          A          G          C  
             |----------|----------|----------|----------|
                         
 F           Am         Bb/G        C  
|----------|-----------|-----------|----------|
           Oh La Da Da Da Da DA.... aha

 F          Am          Bb/G        C  
|----------|-----------|-----------|----------|
Whoa...  oOho...    Whoa     oOOooo   ooOOooo

 F          Am          Bb/G        C  
|----------|-----------|-----------|----------|
Da Da Da Da Da Da DA DA  La Da Da   La Da Da Da

 F          Am          Bb/G          C  
|----------|-----------|-----------|----------|
Whoa...  oOho...    Whoa     oOOooo   ooOOooo            
Submit corrections

↑ Back to top | Tablatures and chords for acoustic guitar and electric guitar, ukulele, drums are parodies/interpretations of the original songs. You may use it for private study, scholarship, research or language learning purposes only