» » »

Guess Who - Follow Your Daughter Home Bass

Artists:  A B C D E F G H I J K L M N O P Q R S T U V W X Y Z # 

Follow Your Daughter Home Bass

(ver. 1) Click to play this song!
Guess Who
 Rating:
4.4/5 (11 votes)

 Follow Your Daughter Home lessons Tabs too difficult? Try these video lessons and learn fast
 
                 [Intro]
 Q=158
 4/4
 Gtr I
   W          W          W          +W
G|----------|----------|----------|--------|
D|----------|----------|----------|--------|
A|----------|----------|----------|--------|
E|----------|----------|-3--------|-(3)----|


     Q  E Q  E Q    Q  E Q  E Q    Q  E Q  E Q    Q  Q  Q  Q    5x
G||---------------|--------------|--------------|---------------||
D||o-----------5--|-----------5--|-----------5--|-------5------o||
A||o------3--3----|------3--3----|------3--3----|----3-----5---o||
E||--3------------|-3------------|-3------------|-3-------------||


  [Chorus]
     Q  E Q  E Q    Q  E Q  E Q    Q  E Q  E Q    Q  Q  Q  Q    3x
G||---------------|--------------|--------------|---------------||
D||o-----------5--|-----------5--|-----------5--|-------5------o||
A||o------3--3----|------3--3----|------3--3----|----3-----5---o||
E||--3------------|-3------------|-3------------|-3-------------||


  [1st - 3rd Verses]
  Segno $
     Q  E Q  E Q    Q  E Q  E Q    Q  E Q  E Q    Q  Q  Q  Q
G||---------------|--------------|--------------|--------------|
D||o-----------5--|-----------5--|-----------5--|-------5------|
A||o------3--3----|------3--3----|------3--3----|----3-----5---|
E||--3------------|-3------------|-3------------|-3------------|


   Q  E Q  E Q    Q  E Q  E Q    Q  E Q  E Q    Q  Q  Q  Q
G|--------------|--------------|--------------|-------------|
D|-----------5--|-----------5--|-----------5--|-------5-----|
A|------3--3----|------3--3----|------3--3----|----3-----5--|
E|-3------------|-3------------|-3------------|-3-----------|


   Q  E Q  E Q    Q  E Q  E Q    Q  E Q  E Q    Q  Q  Q  Q
G|--------------|--------------|--------------|-------------|
D|-----------5--|-----------5--|-----------5--|-------5-----|
A|------3--3----|------3--3----|------3--3----|----3-----5--|
E|-3------------|-3------------|-3------------|-3-----------|


   Q  E Q  E Q    Q  E Q  E Q    Q  E Q  E Q    Q  Q  Q  Q
G|--------------|--------------|--------------|-------------||
D|-----------5--|-----------5--|-----------5--|-------5-----||
A|------3--3----|------3--3----|------3--3----|----3-----5--||
E|-3------------|-3------------|-3------------|-3-----------||


 [Chorus]
   Q  E Q  E Q    Q  E Q  E Q    Q  E Q  E Q    Q  Q  Q  Q
G|--------------|--------------|--------------|-------------|
D|-----------5--|-----------5--|-----------5--|-------5-----|
A|------3--3----|------3--3----|------3--3----|----3-----5--|
E|-3------------|-3------------|-3------------|-3-----------|


                                                     To Coda
   Q  E Q  E Q    Q  E Q  E Q    Q  E Q  E Q    Q  Q  Q  Q
G|--------------|--------------|--------------|--------------||
D|-----------5--|-----------5--|-----------5--|-------5-----o||
A|------3--3----|------3--3----|------3--3----|----3-----5--o||
E|-3------------|-3------------|-3------------|-3------------||


  [Flute Solo]
     Q  E Q  E Q    Q  E Q  E Q
G||---------------|--------------|
D||o-----------5--|-----------5--|
A||o------3--3----|------3--3----|
E||--3------------|-3------------|


                 1.,2.,3.        4.
                                 Dal Segno al Coda
   Q  E Q  E Q    Q  Q  Q  Q   4x Q  Q  Q  Q
G|--------------|--------------||---------------||
D|-----------5--|-------5-----o||-------5-------||
A|------3--3----|----3-----5--o||----3-----5----||
E|-3------------|-3------------||-3-------------||


  [Out-Chorus]
  Coda &
     Q  E Q  E Q    Q  E Q  E Q    Q  E Q  E Q    Q  Q  Q  Q
G||---------------|--------------|--------------|---------------||
D||o-----------5--|-----------5--|-----------5--|-------5------o||
A||o------3--3----|------3--3----|------3--3----|----3-----5---o||
E||--3------------|-3------------|-3------------|-3-------------||


   Q  E Q  E Q    Q  E Q  E Q    Q  E Q  E Q    +W
G|--------------|--------------|--------------|--------*|
D|-----------5--|-----------5--|-----------5--|-(5)----*|
A|------3--3----|------3--3----|------3--3----|--------*|
E|-3------------|-3------------|-3------------|--------*|            
Submit corrections


        Follow Your Daughter Home lessons Hard to play? Try these video lessons and learn fast Follow Your Daughter Home lessons
        
↑ Back to top | Tablatures and chords for acoustic guitar and electric guitar, ukulele, drums are parodies/interpretations of the original songs. You may use it for private study, scholarship, research or language learning purposes only